Oops, an error
Loading. Please wait.

Debu-Debu Berterbangan Tab

40 views 6 this week
no commentswrite comment
1 2 3 4 5
3 more votes to show rating
add to favorites
launch autoscroll
font size
0
reset
how to read this tab
guitar tuner
Autoscroll
slow
fast
+/-
esc
set tempo
stop
Help us to improve Ultimate-Guitar.com Take our survey!
×
Author
Difficulty
intermediate
About this tab version
Taken off the studio version. No special tuning required. Use the clean channel, and let ring all notes. Was this info helpful? Yes No
A great song by Efek Rumah Kaca. Very complex and deep.

Let ring all

[Intro]
e|--4-----------4-----------4-----------4----------| 
B|--------5-----------5-----------5-----------5----|
G|-----6-----6-----6-----6-----6-----6-----6-----6-|
D|-------------------------------------------------|
A|-------------------------------------------------|
E|-------------------------------------------------|

[Verse 1]
  De      mi  ma   sa                sungguh kita
e|--4-----------4-----------4-----------4----------| 
B|--------5-----------5-----------5-----------5----|
G|-----6-----6-----6-----6-----6-----6-----6-----6-|
D|-------------------------------------------------|
A|-------------------------------------------------|
E|-------------------------------------------------|

  Ter       sesat.....                 Membiaskan
e|--4-----------4-----------0-----------0----------| 
B|--------7-----------7-----------4-----------4----|
G|-----6-----6-----6-----6-----6-----6-----6-----6-|
D|-------------------------------------------------|
A|-------------------------------------------------|
E|-------------------------------------------------|

   Yang     ha ram....                 Kar'na kita
e|--4-----------4-----------5-----------5----------| 
B|--------5-----------5-----------5-----------5----|
G|-----6-----6-----6-----6-----6-----6-----6-----6-|
D|-------------------------------------------------|
A|-------------------------------------------------|
E|-------------------------------------------------|

   Ma       nu sia....
e|--6-----------6-----------0-----------0----------| 
B|--------5-----------5-----------4-----------4----|
G|-----6-----6-----6-----6-----6-----6-----6-----6-|
D|-------------------------------------------------|
A|-------------------------------------------------|
E|-------------------------------------------------|

   De       mi  ma   sa                sungguh kita
e|--4-----------4-----------4-----------4----------| 
B|--------5-----------5-----------5-----------5----|
G|-----6-----6-----6-----6-----6-----6-----6-----6-|
D|-------------------------------------------------|
A|-------------------------------------------------|
E|-------------------------------------------------|

  Ter       hisap.....                 Ke dalam lu-
e|--4-----------4-----------0-----------0----------| 
B|--------7-----------7-----------4-----------4----|
G|-----6-----6-----6-----6-----6-----6-----6-----6-|
D|-------------------------------------------------|
A|-------------------------------------------------|
E|-------------------------------------------------|

   bang     hi tam....                 Kar'na kita
e|--7-----------7-----------7-----------7----------| 
B|--------9-----------9-----------10----------10---|
G|-----9-----9-----9-----9-----9------9----9------9|
D|-------------------------------------------------|
A|-------------------------------------------------|
E|-------------------------------------------------|

   Ma       nu sia....                 Pa da sa at-
e|--4-----------4-----------0-----------0----------| 
B|--------7-----------7-----------4-----------4----|
G|-----6-----6-----6-----6-----6-----6-----6-----6-|
D|-------------------------------------------------|
A|-------------------------------------------------|
E|-------------------------------------------------|

[Chorus]
  nya       nanti....                 Tak bisa ber-
e|-11-----------11----------11----------11---------| 
B|-------12-----------12----------11----------11---|
G|----11-----11----11----11----11----11----11----11|
D|-------------------------------------------------|
A|-------------------------------------------------|
E|-------------------------------------------------|

 sem        bunyi....                 Ki ta pun me-
e|-12----------12----------11----------11----------| 
B|-------10----------10-----------9-----------9----|
G|-----9-----9-----9-----9-----9-----9-----9-----9-|
D|-------------------------------------------------|
A|-------------------------------------------------|
E|-------------------------------------------------|

  nye       sali....                   Ki ta meru-
e|--6-----------6-----------7-----------7----------| 
B|--------7-----------7-----------9-----------9----|
G|-----8-----8-----8-----8-----9-----9-----9-----9-|
D|-------------------------------------------------|
A|-------------------------------------------------|
E|-------------------------------------------------|

  gi....       Pa da siapa   mo hon       Perlindu-
e|-11-----------11----------11----------11---------| 
B|-------12-----------12----------11----------11---|
G|----11-----11----11----11----11----11----11----11|
D|-------------------------------------------------|
A|-------------------------------------------------|
E|-------------------------------------------------|

  ngan....    De bu de bu       Berter   ba   ngan
e|-12----------12----------10----------10----------| 
B|-------10----------10----------10----------10----|
G|-----9-----9-----9-----9----11----11----11----11-|
D|-------------------------------------------------|
A|-------------------------------------------------|
E|-------------------------------------------------|

               Pada siapa    mo   hon     Perlindu-
e|--9-----------9-----------9-----------9----------| 
B|-------10----------10-----------9-----------9----|
G|-----9-----9-----9-----9-----9-----9-----9-----9-|
D|-------------------------------------------------|
A|-------------------------------------------------|
E|-------------------------------------------------|

  ngan....    De bu de bu       Berter   ba   ngan
e|-10----------10-----------8-----------8----------| 
B|--------8-----------8-----------8-----------8----|
G|-----7-----7-----7-----7-----9-----9-----9-----9-|
D|-------------------------------------------------|
A|-------------------------------------------------|
E|-------------------------------------------------|

e|--7-----------7-----------7-----------7----------| 
B|--------7-----------7-----------7-----------7----|
G|-----8-----8-----8-----8-----8-----8-----8-----8-|
D|-------------------------------------------------|
A|-------------------------------------------------|
E|-------------------------------------------------|

[Interlude] - Lead
e|--------------------------------------7-----7/9--| 
B|--7/9------7--7/9--------------------------------|
G|--------------------6-----------------4-----4/6--|
D|--4/6------4--4/6--------------------------------|
A|--------------------4----------------------------|
E|-------------------------------------------------|

e|-------------------------------------------------| 
B|--7-----------5-4---------------------5--7--9-10-|
G|-------------------------------------------------|
D|--4-----------2-1---------------------2--4--6-8--|
A|-------------------------------------------------|
E|-------------------------------------------------|

e|-------------------------------------------------| 
B|--10/12------------12-14-14/15---14---12-10---11-|
G|-----------------9-------------------------------|
D|--8/10-------------9--11-11/12---11---9--7----8--|
A|-------------------------------------------------|
E|-------------------------------------------------|

e|---------------6--------9----------12--------15--| 
B|-------------5--------8---------11--------14-----|
G|-----------6--------9--------12--------15--------|
D|-------------------------------------------------|
A|-------------------------------------------------|
E|-------------------------------------------------|

[Interlude] - Rhythm
e|--4-----------4-----------4-----------4----------| 
B|--------5-----------5-----------5-----------5----|
G|-----6-----6-----6-----6-----6-----6-----6-----6-|
D|-------------------------------------------------|
A|-------------------------------------------------|
E|-------------------------------------------------|

e|--4-----------4-----------0-----------0----------| 
B|--------7-----------7-----------4-----------4----|
G|-----6-----6-----6-----6-----6-----6-----6-----6-|
D|-------------------------------------------------|
A|-------------------------------------------------|
E|-------------------------------------------------|

e|--7-----------7-----------7-----------7----------| 
B|--------9-----------9-----------10----------10---|
G|-----9-----9-----9-----9-----9------9----9------9|
D|-------------------------------------------------|
A|-------------------------------------------------|
E|-------------------------------------------------|

e|--4-----------4-----------0-----------0----------| 
B|--------7-----------7-----------4-----------4----|
G|-----6-----6-----6-----6-----6-----6-----6-----6-|
D|-------------------------------------------------|
A|-------------------------------------------------|
E|-------------------------------------------------|

[Verse 2]
  nya       nanti....                 Tak bisa ber-
e|-11-----------11----------11----------11---------| 
B|-------12-----------12----------11----------11---|
G|----11-----11----11----11----11----11----11----11|
D|-------------------------------------------------|
A|-------------------------------------------------|
E|-------------------------------------------------|

 sem        bunyi....                 Ki ta pun me-
e|-12----------12----------11----------11----------| 
B|-------10----------10-----------9-----------9----|
G|-----9-----9-----9-----9-----9-----9-----9-----9-|
D|-------------------------------------------------|
A|-------------------------------------------------|
E|-------------------------------------------------|

  nye       sali....                   Ki ta meru-
e|--6-----------6-----------7-----------7----------| 
B|--------7-----------7-----------9-----------9----|
G|-----8-----8-----8-----8-----9-----9-----9-----9-|
D|-------------------------------------------------|
A|-------------------------------------------------|
E|-------------------------------------------------|

  gi....       Pa da siapa   mo hon       Perlindu-
e|-11-----------11----------11----------11---------| 
B|-------12-----------12----------11----------11---|
G|----11-----11----11----11----11----11----11----11|
D|-------------------------------------------------|
A|-------------------------------------------------|
E|-------------------------------------------------|

  ngan....    De bu de bu       Berter   ba   ngan
e|-12----------12----------10----------10----------| 
B|-------10----------10----------10----------10----|
G|-----9-----9-----9-----9----11----11----11----11-|
D|-------------------------------------------------|
A|-------------------------------------------------|
E|-------------------------------------------------|

               Pada siapa    mo   hon     Perlindu-
e|--9-----------9-----------9-----------9----------| 
B|-------10----------10-----------9-----------9----|
G|-----9-----9-----9-----9-----9-----9-----9-----9-|
D|-------------------------------------------------|
A|-------------------------------------------------|
E|-------------------------------------------------|

  ngan....    De bu de bu       Berter   ba   ngan
e|-10----------10-----------8-----------8----------| 
B|--------8-----------8-----------8-----------8----|
G|-----7-----7-----7-----7-----9-----9-----9-----9-|
D|-------------------------------------------------|
A|-------------------------------------------------|
E|-------------------------------------------------|

e|--7-----------7-----------7-----------7----------| 
B|--------7-----------7-----------7-----------7----|
G|-----8-----8-----8-----8-----8-----8-----8-----8-|
D|-------------------------------------------------|
A|-------------------------------------------------|
E|-------------------------------------------------|

[Outro] - It's difficult to figure it out due to the heavy layers of vocals
          I can  only hear a faint sound right before the song ends
          Repeat as much as you need

e|-------11-------11-------------11-------11-------| 
B|----14-------14-------14----14-------14-------14-|
G|-13-------13-------13----13-------13-------13----|
D|-------------------------------------------------|
A|-------------------------------------------------|
E|-------------------------------------------------|

e|-------12-------12-------------11-------11-------| 
B|----14-------14-------14----14-------14-------14-|
G|-13-------13-------13----13-------13-------13----|
D|-------------------------------------------------|
A|-------------------------------------------------|
E|-------------------------------------------------|

************************************

| /  Slide up

************************************
Suggest correction
Give kudos to tab author, rate the tab!
1 2 3 4 5
comments
print report bad tab
guest
You may want to rate the tab now too:
select rating
Wanna post a correction for this tab? Suggest correction