Oops, an error
Loading. Please wait.

Pasar Bisa Diciptakan chords

1,279 views 21 this week
no commentswrite comment
1 2 3 4 5
1 last vote to show rating
add to favorites
×
Save as Personal and add changes to this tab that will be seen only by you. Learn more ›
×
You can save this tab as Personal to edit and correct it or add notes. All changes will be seen only by you. Learn more »
launch autoscroll
font size
0
reset
transpose
0
reset
display chords
guitar tuner
edit
Autoscroll
slow
fast
+/-
esc
set tempo
stop
Author
Difficulty
Strumming
There is no strumming pattern for this song yet. and get +5 IQ
[Intro]
Am

[Verse 1]
Am                       
Kami mau yang lebih indah, 
                          Em
Bukan hanya remah-remah sepah... Sudahlah
Am
Kami hanya akan mencipta, 
                       Em
segala apa yang kami cinta... Bahagia

Am
Kami bawa mengembara
Em
Di dasar jiwa, di dasar jiwa


[Chorus]
C             Am             Em
Bermusim pada belantara sendiri (Pasar bisa diciptakan)
C                  Am             Em
Membangun kota dan peradaban sendiri (Pasar bisa diciptakan)

[Interlude}
Am Em

[Verse 2]
Am
Kami ingin lebih bergizi,
                         Em
Bukan hanya yang malnutrisi... Substansi

Am
Kami bawa mengembara
Em
Di dasar jiwa, di dasar jiwa

[Chorus]
C             Am             Em
Bermusim pada belantara sendiri (Pasar bisa diciptakan)
C             Am             Em
Membangun kota dan peradaban sendiri (Pasar bisa diciptakan)


[Interlude 2]

Am

e|-1-1-----1-1-----1-1-----1-1--6--|-1-1-----1-1-----1-1-----1-1--6-|
B|-----3-3-----3-3-----3-3---------|-----3-3-----3-3-----3-3--------|
G|---------------------------------|--------------------------------|
D|---------------------------------|--------------------------------|
A|---------------------------------|--------------------------------|
E|---------------------------------|--------------------------------|

Em

e|-----------0-|-----------0-|-----------0-|-----------0-|
B|-----0-1-3---|-----0-1-3---|-----0-1-3---|-----0-1-3---|
G|-0-2---------|-0-2---------|-0-2---------|-0-2---------|
D|-------------|-------------|-------------|-------------|
A|-------------|-------------|-------------|-------------|
E|-------------|-------------|-------------|-------------|

[Chorus]
C             Am             Em
Bermusim pada belantara sendiri (Pasar bisa diciptakan)
C             Am             Em
Membangun kota dan peradaban sendiri (Pasar bisa diciptakan)

[Bridge]

Bass on Bridge]
G|-------------------------------------|
D|-------------------------------------|
A|-3-3-3-3h2-0-0-0-0-------------------|
E|-------------------0-0-0-0-0-0-0-0---|

C          Am
Pasar bisa diciptakan
      Em
Pasar bisa diciptakan

Pasar bisa diciptakan
C          Am
Pasar bisa diciptakan
      Em
Pasar bisa diciptakan

Ooo.. Eh.. Oh..
C          Am
Pasar bisa diciptakan
      Em
Pasar bisa diciptakan

Pasar bisa diciptakan
C          Am
Pasar bisa diciptakan
      Em
Pasar bisa diciptakan

**************************************
| h    Hammer-on
**************************************

            
            
Suggest correction
Creating personal tab
Creating personal tab
You can edit any tab online and save it as your Personal.

You can edit, replace or remove any tab part or add personal notes – all changes will be seen only by you.

Personal tabs can be accessed anytime from any device, even offline.
Learn more »
Give kudos to tab author, rate the tab!
1 2 3 4 5
comments
print report bad tab
guest
You may want to rate the tab now too:
select rating
Wanna post a correction for this tab? Suggest correction