Oops, an error
Loading. Please wait.

All We Know tab

141 views 3 this week
2 commentsread comments
1 2 3 4 5
1 last vote to show rating
add to favorites
×
Save as Personal and add changes to this tab that will be seen only by you. Learn more ›
×
You can save this tab as Personal to edit and correct it or add notes. All changes will be seen only by you. Learn more »
launch autoscroll
font size
0
reset
how to read this tab
guitar tuner
edit
Autoscroll
slow
fast
+/-
esc
set tempo
stop
Intro: X2

|---------------------------------------------------------------------------|
|---------------------------------------------------------------------------|
|----------------------------------------------55-555-555-5-55-55-555-555-5-|
|-2-0-2---7-7777777---2-0-2---5-7777777--2-0-2-55-555-555-5-55-55-555-555-5-|
|-2-0-2---7-7777777---2-0-2---5-7777777--2-0-2-33-333-333-3-33-33-333-333-3-|
|-2-0-2---7-7777777---2-0-2---5-7777777--2-0-2------------------------------|

Pre-Chorus: X1

|---------------------------------------------------------------------------|
|---------------------------------------------------------------------------|
|----------------------------------------------55-555-555-5-55-55-555-555-5-|
|-2-0-2---77777777777-99999-5555555555---2-0-2-55-555-555-5-55-55-555-555-5-|
|-2-0-2---77777777777-99999-5555555555---2-0-2-33-333-333-3-33-33-333-333-3-|
|-2-0-2---77777777777-99999-5555555555---2-0-2------------------------------|
          ........... ..... ..........

Chorus: X2  then Ending
                                                            Ending
|-------------------------------------------------|------------------------|
|-------------------------------------------------|------------------------|
|------------------555555555----------------------|------------------------|
|-0-222222222222---555555555----0--7-777-0--5-555-|---22222222222222222----|
|-0-222222222222---333333333----0--7-777-0--5-555-|---22222222222222222----|
|-0-222222222222----------------0--7-777-0--5-555-|---22222222222222222----|
                                                      .................
Chorus Guitar 2: 
Note: listen for timing. Those are 10’s 11’s and 12’s

|-----------------------------------------------------------------------|
|-----------------------------------------------------------------------|
|---999999999999999999-1111111111111111-1212121212121212121212121212----|
|---xxxxxxxxxxxxxxxxxx-xxxxxxxxxxxxxxxx--x-x-x-x-x-x-x-x-x-x-x-x-x-x----|
|---777777777777777777-9999999999999999-1010101010101010101010101010----|
|-----------------------------------------------------------------------|


REPEAT INTRO VERSE,REF AND CHORUS

Verse: X4  Then Ending

|------5---------7---------3-----------|---------------|
|------5---------7---------3-----------|---------------|
|------7---------9---------5-----------|---------------|
|------7---------9---------5-----------|--0000-2222----|
|------5---------7---------3-----------|--0000-2222----|
|--------------------------------------|--0000-2222----|
                                          .... ....

Bridge: X1                   
|------------------------------------------------------------|
|-------------------------------------5*---------------------|
|--5-5----5*---------------------5-5-------------------------|
|--5-5--------0--22222-4444-555--5-5------0--22222-0000------|
|--3-3--------0--22222-4444-555--3-3------0--22222-0000------|
|-------------0--22222-4444-555-----------0--22222-0000------|






Solo: 2:35

|---------------------------------------------------------|
|---------------------------------------------------------|
|--16-16-16-16-14-14-14-14-19-19-19-19-19-21-21-21-21-21--|
|---x--x--x--x--x--x--x--x--x--x--x--x--x--x--x--x--x--x--| Continued
|--14-14-14-14-12-12-12-12-17-17-17-17-17-19-19-19-19-19--|
|---------------------------------------------------------|

|----------------------------19-19-19-19---------------------------|
|-19-19-19-19-19-20-20-20-20--------------17-17-17-17--20-20-20-20-|
|--x--x--x--x--x--x--x--x--x---------------------------------------|
|-16-16-16-16-16-17-17-17-17---------------------------------------| continued
|------------------------------------------------------------------|
|------------------------------------------------------------------|

|---17-17-17-17------------------------------------------------------------|
|---------------15-15-15-15-15-17-17-17-17-19-19-19-19-20-20-20-20-20—12~~-|
|--------------------------------------------------------------------------|
|--------------------------------------------------------------------------|
|--------------------------------------------------------------------------|
|--------------------------------------------------------------------------|

End 

|-----|
|-----|
|-----|
|--2--|
|--2--|
|--2--|
Suggest correction
Creating personal tab
Creating personal tab
You can edit any tab online and save it as your Personal.

You can edit, replace or remove any tab part or add personal notes – all changes will be seen only by you.

Personal tabs can be accessed anytime from any device, even offline.
Learn more »
Give kudos to tab author, rate the tab!
1 2 3 4 5
comments
print report bad tab
2 comments total.
0 reply
doobidoo 6,271 Aug 22, 2007 12:36 AM

ito ung Rockstar Encore Tab by Effinboiche :
I dedicate this tab to Angeliqur Fuentes ..heheheheh...lab u..

by Francis
Sacred Heart College
Lucena City
09109712432


Tuning Guitar 1 -( e b g d A D )
Guitar 2 -( e b g d A D )

h=hammer
p=pull off
^=slight bend
*=palm mute


Intro-
1.
Guitar1-
|----------------|----------------|----------------|-----------------|
|----------------|----------------|----------------|-----------------|
|--10-9--10-9-9--|--10-9--10-9-9--|--10-9--10-9-9--|--10-9--10-9-9---|
|----------------|----------------|----------------|-----------------|
|----------------|----------------|----------------|-----------------|
|----------------|----------------|----------------|-----------------|

|----------------|----------------|----------------|-----------------|
|----------------|----------------|----------------|-----------------|
|--10-9--10-9-9--|--10-9--10-9-9--|--10-9--10p9-9--|--10-9--10-9-9---|
|----------------|----------------|----------------|-----------------|
|----------------|----------------|----------------|-----------------|
|----------------|----------------|----------------|-----------------|


Guitar 2
|-----------------|-----------------|-----------------|-----------------|
|-----------------|-----------------|-----------------|-----------------|
|-----------------|-----------------|-----------------|-----------------|
|-12-10--12-10-10-|-12-10--12-10-10-|-12-10--12-10-10-|-12-10--12-10-10-|
|-----------------|-----------------|-----------------|-----------------|
|-----------------|-----------------|-----------------|-----------------|

|-----------------|-----------------|-----------------|-----------------|
|-----------------|-----------------|-----------------|-----------------|
|-----------------|-----------------|-----------------|-----------------|
|-12-10--12-10-10-|-12-10--12-10-10-|-12-10--12-10-10-|-12-10--12-10-10-|
|-----------------|-----------------|-----------------|-----------------|
|-----------------|-----------------|-----------------|-----------------|

2.


Guitar1
|-----------------|-----------------|-----------------|-----------------|
|-----------------|-----------------|-----------------|-----------------|
|-----------------|-----------------|-----------------|-----------------|
|-333333333333333-|-555555555555555-|-777777777777777-|-777777777777777-|2x
|-333333333333333-|-555555555555555-|-777777777777777-|-777777777777777-|
|-333333333333333-|-555555555555555-|-777777777777777-|-777777777777777-|

Guitar2
|---------------|---------------|---------------|---------------|----------|
|---------------|---------------|---------------|---------------|----------|
|---------------|---------------|---------------|---------------|----------|
|-----9-----10--|-----9-----10--|-----9-----10--|-----9-----10--|-----10h12|
|-8-8---8-8-----|-8-8---8-8-----|-8-8---8-8-----|-8-8---8-8-----|-8-8------|
|---------------|---------------|---------------|---------------|----------|
* * * * * * * * * * * * * * * * * *


|---------------|---------------|------------------------------------|
|---------------|---------------|------------------------------------|
|---------------|---------------|------------------------------------|
|------10----12-|-----10-----12-|------10-------10-12---14h15p14-----|
|-1010---1010---|-1010---1010---|--1010---10-10------------------15--|
|---------------|---------------|------------------------------------|
* * * * * * * * * * * *

|---------------|---------------|------------------------------------|
|---------------|---------------|------------------------------------|
|---------------|---------------|--------12^h14----------------------|
|------12----14-|------12----14-|------------------------------------|
|-1212---1212---|-1212---1212---|--12-12-----------------------------|
|---------------|---------------|------------------------------------|
* * * * * * * * * *

|---------------|---------------|------------------------------------|
|---------------|---------------|------------------------------------|
|---------------|---------------|--------12h14-12--12----------------|
|------12----14-|------12----14-|------------------------------------|
|-1212---1212---|-1212---1212---|--12-12-----------------------------|
|---------------|---------------|------------------------------------|
* * * * * * * * * *

3.

Guitar1
|-----------------|-----------------|-----------------|-----------------|
|-----------------|-----------------|-----------------|-----------------|
|-----------------|-----------------|-----------------|-----------------|
|-333333333333333-|-555555555555555-|-777777777777777-|-777777777777777-|2x
|-333333333333333-|-555555555555555-|-777777777777777-|-777777777777777-|
|-333333333333333-|-555555555555555-|-777777777777777-|-777777777777777-|

Guitar2
|---------------|---------------|---------------|--------------

0 reply
doobidoo 6,271 Aug 22, 2007 12:38 AM

by Francis
Sacred Heart College
Lucena City
09109712432


Tuning Guitar 1 -( e b g d A D )
Guitar 2 -( e b g d A D )

h=hammer
p=pull off
^=slight bend
*=palm mute


Intro-
1.
Guitar1-
|----------------|----------------|----------------|-----------------|
|----------------|----------------|----------------|-----------------|
|--10-9--10-9-9--|--10-9--10-9-9--|--10-9--10-9-9--|--10-9--10-9-9---|
|----------------|----------------|----------------|-----------------|
|----------------|----------------|----------------|-----------------|
|----------------|----------------|----------------|-----------------|

|----------------|----------------|----------------|-----------------|
|----------------|----------------|----------------|-----------------|
|--10-9--10-9-9--|--10-9--10-9-9--|--10-9--10p9-9--|--10-9--10-9-9---|
|----------------|----------------|----------------|-----------------|
|----------------|----------------|----------------|-----------------|
|----------------|----------------|----------------|-----------------|


Guitar 2
|-----------------|-----------------|-----------------|-----------------|
|-----------------|-----------------|-----------------|-----------------|
|-----------------|-----------------|-----------------|-----------------|
|-12-10--12-10-10-|-12-10--12-10-10-|-12-10--12-10-10-|-12-10--12-10-10-|
|-----------------|-----------------|-----------------|-----------------|
|-----------------|-----------------|-----------------|-----------------|

|-----------------|-----------------|-----------------|-----------------|
|-----------------|-----------------|-----------------|-----------------|
|-----------------|-----------------|-----------------|-----------------|
|-12-10--12-10-10-|-12-10--12-10-10-|-12-10--12-10-10-|-12-10--12-10-10-|
|-----------------|-----------------|-----------------|-----------------|
|-----------------|-----------------|-----------------|-----------------|

2.


Guitar1
|-----------------|-----------------|-----------------|-----------------|
|-----------------|-----------------|-----------------|-----------------|
|-----------------|-----------------|-----------------|-----------------|
|-333333333333333-|-555555555555555-|-777777777777777-|-777777777777777-|2x
|-333333333333333-|-555555555555555-|-777777777777777-|-777777777777777-|
|-333333333333333-|-555555555555555-|-777777777777777-|-777777777777777-|

Guitar2
|---------------|---------------|---------------|---------------|----------|
|---------------|---------------|---------------|---------------|----------|
|---------------|---------------|---------------|---------------|----------|
|-----9-----10--|-----9-----10--|-----9-----10--|-----9-----10--|-----10h12|
|-8-8---8-8-----|-8-8---8-8-----|-8-8---8-8-----|-8-8---8-8-----|-8-8------|
|---------------|---------------|---------------|---------------|----------|
* * * * * * * * * * * * * * * * * *


|---------------|---------------|------------------------------------|
|---------------|---------------|------------------------------------|
|---------------|---------------|------------------------------------|
|------10----12-|-----10-----12-|------10-------10-12---14h15p14-----|
|-1010---1010---|-1010---1010---|--1010---10-10------------------15--|
|---------------|---------------|------------------------------------|
* * * * * * * * * * * *

|---------------|---------------|------------------------------------|
|---------------|---------------|------------------------------------|
|---------------|---------------|--------12^h14----------------------|
|------12----14-|------12----14-|------------------------------------|
|-1212---1212---|-1212---1212---|--12-12-----------------------------|
|---------------|---------------|------------------------------------|
* * * * * * * * * *

|---------------|---------------|------------------------------------|
|---------------|---------------|------------------------------------|
|---------------|---------------|--------12h14-12--12----------------|
|------12----14-|------12----14-|------------------------------------|
|-1212---1212---|-1212---1212---|--12-12-----------------------------|
|---------------|---------------|------------------------------------|
* * * * * * * * * *

3.

Guitar1
|-----------------|-----------------|-----------------|-----------------|
|-----------------|-----------------|-----------------|-----------------|
|-----------------|-----------------|-----------------|-----------------|
|-333333333333333-|-555555555555555-|-777777777777777-|-777777777777777-|2x
|-333333333333333-|-555555555555555-|-777777777777777-|-777777777777777-|
|-333333333333333-|-555555555555555-|-777777777777777-|-777777777777777-|

Guitar2
|---------------|---------------|---------------|---------------|----------|
|---------------|---------------|---------------|---------------|----------|
|---------------|

guest
You may want to rate the tab now too:
select rating
Wanna post a correction for this tab? Suggest correction