Oops, an error
Loading. Please wait.

Matterhorn Tab

by Egypt
97 views 12 this week
no commentswrite comment
1 2 3 4 5
2 more votes to show rating
add to favorites
launch autoscroll
font size
0
reset
how to read this tab
guitar tuner
×
Best way to learn
"Matterhorn"
Autoscroll
slow
fast
+/-
esc
set tempo
stop
Author
Difficulty
Tuning
novice
E A D G B E
Song: Matterhorn
Artist: Egypt
Album: Become The Sun (2013)


[Intro]
e|---------------------------------------------------------------------------| 
B|---------------------------------------------------------------------------|
G|------5---5-----5---5-----5h7-7br--------5---5-----/7--5-------------------|
D|------5---5-----5---5-----5h7-7br--------5---5-----------7-5---------------| x3
A|--0-0---0---0-0---0---0-0------------0-0---0---0-0-----------7-6-5---------|
E|-------------------------------------------------------------------8-------|

e|---------------------------------------------------------------------------|
B|---------------------------------------------------------------------------|
G|------5---5-----5---5-----5h7-7br--------5---5-----------------------------|
D|------5---5-----5---5-----5h7-7br--------5---5-----7--7-5h7p5h7p5h7-5------|
A|--0-0---0---0-0---0---0-0------------0-0---0---0-0--------------------7----|
E|------------------------------------------------------------------------8--|


[Verse]
e|---------------------------------------------------------------------------|
B|---------------------------------------------------------------------------|
G|------5---5-----5---5-----5h7-7br--------5---5-----/7--5-------------------|
D|------5---5-----5---5-----5h7-7br--------5---5-----------7-5---------------|
A|--0-0---0---0-0---0---0-0------------0-0---0---0-0-----------7-6-5---------|
E|-------------------------------------------------------------------8-------|

e|---------------------------------------------------------------------------|
B|---------------------------------------------------------------------------|
G|------5---5-----5---5-----5h7-7br--------5---5-----------------------------|
D|------5---5-----5---5-----5h7-7br--------5---5-----7--7-5h7p5h7p5h7-5------|
A|--0-0---0---0-0---0---0-0------------0-0---0---0-0--------------------7----|
E|------------------------------------------------------------------------8--|

e|---------------------------------------------------------------------------|
B|---------------------------------------------------------------------------|
G|------5---5-----5---5-----5h7-7br--------5---5-----/7--5-------------------|
D|------5---5-----5---5-----5h7-7br--------5---5-----------7-5---------------|
A|--0-0---0---0-0---0---0-0------------0-0---0---0-0-----------7-6-5---------|
E|-------------------------------------------------------------------8-------|

e|---------------------------------------------------------------------------|
B|---------------------------------------------------------------------------|
G|------5---5-----5---5-----5h7-7br--------5---5-----------------------------|
D|------5---5-----5---5-----5h7-7br--------5---5-----7--7-5h7p5h7p5h7-5------|
A|--0-0---0---0-0---0---0-0------------0-0---0---0-0--------------------7----|
E|------------------------------------------------------------------------8--|


[Chorus] 
e|---------------------------------------------------------------------------|
B|---------------------------------------------------------------------------|
G|--2------------------------------------------------------------------------|
D|--2--------------------3-------(2)--3--5-----------------------------------| x2
A|--0--------------------3-------(2)--3--5-----------------------------------|
E|-----------------------1-------(0)--1--3-----------------------------------|


[Verse]
e|---------------------------------------------------------------------------| 
B|---------------------------------------------------------------------------|
G|------5---5-----5---5-----5h7-7br--------5---5-----/7--5-------------------|
D|------5---5-----5---5-----5h7-7br--------5---5-----------7-5---------------| x2
A|--0-0---0---0-0---0---0-0------------0-0---0---0-0-----------7-6-5---------|
E|-------------------------------------------------------------------8-------|

e|---------------------------------------------------------------------------|
B|---------------------------------------------------------------------------|
G|------5---5-----5---5-----5h7-7br--------5---5-----------------------------|
D|------5---5-----5---5-----5h7-7br--------5---5-----7--7-5h7p5h7p5h7-5------|
A|--0-0---0---0-0---0---0-0------------0-0---0---0-0--------------------7----|
E|------------------------------------------------------------------------8--|

e|---------------------------------------------------------------------------|
B|---------------------------------------------------------------------------|
G|------5---5-----5---5-----5h7-7br--------5---5-----/7--5-------------------|
D|------5---5-----5---5-----5h7-7br--------5---5-----------7-5---------------|
A|--0-0---0---0-0---0---0-0------------0-0---0---0-0-----------7-6-5---------|
E|-------------------------------------------------------------------8-------|

e|---------------------------------------------------------------------------|
B|---------------------------------------------------------------------------|
G|------5---5-----5---5-----5h7-7br--------5---5-----------------------------|
D|------5---5-----5---5-----5h7-7br--------5---5-----7--7-5h7p5h7p5h7-5------|
A|--0-0---0---0-0---0---0-0------------0-0---0---0-0--------------------7----|
E|------------------------------------------------------------------------8--|



[Chorus] 
e|---------------------------------------------------------------------------|
B|---------------------------------------------------------------------------|
G|--2------------------------------------------------------------------------|
D|--2--------------------3-------(2)--3--5-----------------------------------| x4
A|--0--------------------3-------(2)--3--5-----------------------------------|
E|-----------------------1-------(0)--1--3-----------------------------------|


[Solo]


[Chorus] 
e|---------------------------------------------------------------------------|
B|---------------------------------------------------------------------------|
G|--2------------------------------------------------------------------------|
D|--2--------------------3-------(2)--3--5-----------------------------------| x2
A|--0--------------------3-------(2)--3--5-----------------------------------|
E|-----------------------1-------(0)--1--3-----------------------------------|


[Outro]  PM-----------|
e|---------------------------------------------------------------------------|
B|---------------------------------------------------------------------------|
G|---------------------------------------------------------------------------|
D|----------------------------------1---------------1------------------------| x3
A|--3-2-----------------------0h1h3---3-1---1h3-3-3---3-1-3-3-3-1------------|
E|--1-0--0--0-0--0-0--0-0h1h3-------------3-----------------------3-1--------|

e|---------------------------------------------------------------------------|
B|---------------------------------------------------------------------------|
G|---------------------------------------------------------------------------|
D|---------------------------------------------------------------------------|
A|--3-2------------------------------------------------------------------------|
E|--1-0------------------------------------------------------------------------|


************************************

| h   Hammer-on
| p   Pull-off
|(n) Ghost note
| br  Bend release
| /   Slide up
| PM  Palm mute

************************************
Suggest correction
Give kudos to tab author, rate the tab!
1 2 3 4 5
comments
print report bad tab
guest
You may want to rate the tab now too:
select rating
Wanna post a correction for this tab? Suggest correction