Oops, an error
Loading. Please wait.

White Rabbit Acoustic chords

1,303 views 33 this week
no commentswrite comment
1 2 3 4 5
x 6
add to favorites
×
Save as Personal and add changes to this tab that will be seen only by you. Learn more ›
×
You can save this tab as Personal to edit and correct it or add notes. All changes will be seen only by you. Learn more »
launch autoscroll
font size
0
reset
transpose
0
reset
display chords
guitar tuner
edit
Autoscroll
slow
fast
+/-
esc
set tempo
stop
About this tab version
This is being played on capo 4 tuning standard. Was this info helpful? Yes No
Strumming
There is no strumming pattern for this song yet. and get +5 IQ
[Intro]

Am         C
Your magic white rabbit
G            D
Has left it's writing on the wall
Am         C
We follow like Alice
G              D
And just keep diving down the hole

     Am                              Am

    D-U-D                           D-U-D           
e|--0-0-0---------------------------0-0-0-----------------------    (2X)
B|--1-1-1------1-1-4-4-1-1-0-0-1----1-1-1------1-1-4-4-1-1-0-0--
G|--2-2-2--2-2----------------------2-2-2--2-2-----------------0
D|--2-2-2---------------------------2-2-2-----------------------
A|--0-0-0---------------------------0-0-0-----------------------
E|--X-X-X---------------------------X-X-X-----------------------

(Stay in Am shape throgh the tabbing part. You could also play Am-C-G-D(x2) instead.)


[Pre-Chorus]

Am  C     G        D                    
You can't fix your broken promise
Am  C    G         D
Our ties have come undone
Am                 C
I will not be used to be battered and abused
G                   D
It's the reason why I choose to cut my losses
Am   C    G       D
Your lies fool no one
Am         C
Your magic white rabbit
G               D
Your white room straight jacket


[Chorus]

Am         C
Your magic white rabbit
G             D
Has left it's writing on the wall
Am        C
We follow like Alice
G             D
And just keep diving down the hole
F                       C      G        Dm
We're falling and we're losing control
Dm              C               G              
Your pulling us and dragging us down this dead end road
Am        C
We follow like Alice
G             D
And just keep diving down the hole

     Am                              Am

    D-U-D                           D-U-D           
e|--0-0-0---------------------------0-0-0-----------------------    (2X)
B|--1-1-1------1-1-4-4-1-1-0-0-1----1-1-1------1-1-4-4-1-1-0-0--
G|--2-2-2--2-2----------------------2-2-2--2-2-----------------0
D|--2-2-2---------------------------2-2-2-----------------------
A|--0-0-0---------------------------0-0-0-----------------------
E|--X-X-X---------------------------X-X-X-----------------------


[Verse]

Am  C     G          D
You can't offer your poison to me
Am C    G          D
In your kingdom of filth
Am
White Rabbit
Am
Straight jacket
Am

[Chorus]
Am         C
Your magic white rabbit
G             D
Has left it's writing on the wall
Am        C
We follow like Alice
G             D
And just keep diving down the hole
F                       C      G        Dm
We're falling and we're losing control
Dm              C               G              
Your pulling us and dragging us down this dead end road
Am        C
We follow like Alice
G             D
And just keep diving down the hole

     Am                              Am

    D-U-D                           D-U-D           
e|--0-0-0---------------------------0-0-0-----------------------     (2X)
B|--1-1-1------1-1-4-4-1-1-0-0-1----1-1-1------1-1-4-4-1-1-0-0--
G|--2-2-2--2-2----------------------2-2-2--2-2-----------------0
D|--2-2-2---------------------------2-2-2-----------------------
A|--0-0-0---------------------------0-0-0-----------------------
E|--X-X-X---------------------------X-X-X-----------------------


[Bridge]

Am      C  
I won't be pushed aside
G         D
I will be heard
Am     C
I will get what I want
G      D
What I deserve

Am      C  
I won't be pushed aside
G         D
I will be heard
Am     C
I will get what I want
G      D
What I deserve

F                       C      G       Dm
We're falling and we're losing control
Dm              C               G                  Am
Your pulling us and dragging us down this dead end road


[Chorus - Outro]

Am         C
Your magic white rabbit
G             D
Has left it's writing on the wall
Am        C
We follow like Alice
G             D
And just keep diving down the hole
F                       C      G        Dm
We're falling and we're losing control
Dm              C               G              
Your pulling us and dragging us down this dead end road
Am        C
We follow like Alice
G             D
And just keep diving down the hole

     Am                              Am                             Am

    D-U-D                           D-U-D                          D-U-D   (2X)
e|--0-0-0---------------------------0-0-0--------------------------0-0-0
B|--1-1-1------1-1-4-4-1-1-0-0-1----1-1-1------1-1-4-4-1-1-0-0-----1-1-1
G|--2-2-2--2-2----------------------2-2-2--2-2-----------------0---2-2-2
D|--2-2-2---------------------------2-2-2--------------------------2-2-2
A|--0-0-0---------------------------0-0-0--------------------------0-0-0
E|--X-X-X---------------------------X-X-X--------------------------x-x-x
Suggest correction
Creating personal tab
Creating personal tab
You can edit any tab online and save it as your Personal.

You can edit, replace or remove any tab part or add personal notes – all changes will be seen only by you.

Personal tabs can be accessed anytime from any device, even offline.
Learn more »
comments
print report bad tab
guest
You may want to rate the tab now too:
select rating
Wanna post a correction for this tab? Suggest correction