Oops, an error
Loading. Please wait.

Brokem Hearted Tab

1,491 views 1 this week
1 commentread comment
1 2 3 4 5
2 more votes to show rating
add to favorites
launch autoscroll
font size
0
reset
how to read this tab
guitar tuner
Autoscroll
slow
fast
+/-
esc
set tempo
stop
Help us to improve Ultimate-Guitar.com Take our survey!
×
First of all, i will only be tabbing the lead and some other guitar parts. Don't ask me 
tab the Rhythm intro. So this song is tunned a half step down. So its Eb,G#,C#,F#,Bb,Eb 
as some of you write Eb,Ab,Db,Gb,Bb,Eb (from low to high) even though they're both the same.

(i don't know the intro for the rhythm so after that the lead plays this).
Pre-Verse
|--------------------------------|
|------------------------------7-|
|-12~-11~-9~-7~--12~-11~-9~-7~-7-|
|--------------------------------|
|--------------------------------|
|--------------------------------|
 plays this twice

Verse:
|--------------------------------------|
|--------------------------------------|
|--------------------------------------|
|-7-----------7-----7-----7------------| X4
|-5-----------5-----5-----5------------|
|---0-0-0-0-0---0-0---0-0---0-0-0-0-0--|
    . . . . .   . .   . .   . . . . .

Pre-Chorus: Lead
|---------------------------------|
|---------------------------------|
|-7-7-6-7-7-7-7-7-7-7-7-7-7-7-7-7-|
|---------------------------------|
----------------------------------|
|---------------------------------|
            . . . . . . . . . . .

Pre-Chorus: Rhythm
|---------------------------|
|---------------------------|
|---------------------------|
|---------------------------|
|-5-5-5--5-5--5--4-4-4------|
|-3-3-3--3-3--3--2-2-2------|

Chorus: Rhythm
|7----------------------|
|5(X8)-9-------5--------|   X2
|------7(X8)---3(X16----|
  The lead Guitar plays something faint in the background, if you can hear it then tab 
Also a third guitar plays some acoustic.

After the chorus the Lead plays the Pre-Verse while the Rhythm repeats the verse.

Verse: X4
Pre-Chorus: X4
Chorus: X4

Bridge: Rhythm
|--------------------------------------------------|
|--------------------------------------------------|
|--------------------------------------------------|
|--------------------------------------------------|
|-5---------------------------5-5-5--5-5--5--4-4-4-|
|-3(as many times as needed)--3-3-3--3-3--3--2-2-2-|

Bridge: Lead
|-------------------------------------------------|
|-15-15-15-15-15-15-15-15-15-15-15-15-14-14-14-15-|
|-------------------------------------------------|
|-------------------------------------------------|
|-------------------------------------------------|
|-------------------------------------------------|
there is one more part after this which i cant figure out so good luck =)

Some piano plays then the lead plays the verse faintly twice. Followed by the chorus 
twice. Then both guitars play the intro and the Pre-verse.
Suggest correction
Give kudos to tab author, rate the tab!
1 2 3 4 5
comments
print report bad tab
1 comment total.
0 reply
shivandrgnx 10 Jul 30, 2007 06:19 AM

i got something like this:

i tuned my guitar 1/2 step up to F and it sounded really close

Pre-Verse
|--------------------------------|
|------------------------------ -|
|-10~-9~-7~-5~--10~-9~-7~-5~-4~7-|
|--------------------------------|
|--------------------------------|
|--------------------------------|

Verse:
|--------------------------------------|
|--------------------------------------|
|-5-----------5-----5-----5------------|
|-5-----------5-----5-----5------------| X4
|---3-3-3-3-3---3-3---3-3---3-3-3-3-3--|
|--------------------------------------|
. . . . . . . . . . . . . .
Pre-Chorus: Rhythm
|---------------------------|
|-5-5-5--5-5--5--5-5-5------|
|-5-5-4--5-5--5--5-5-5------|
|-3-3-3--3-3--3--3-3-3------|
|---------------------------|
|---------------------------|

Chorus: Rhythm
|5~----2~----5~-------------|
|3~----0~----3~-------------| X2
|---------------------------|

guest
You may want to rate the tab now too:
select rating
Wanna post a correction for this tab? Suggest correction