Oops, an error
Loading. Please wait.

Coma Tab

735 views 1 this week
no commentswrite comment
1 2 3 4 5
please rate
add to favorites
launch autoscroll
font size
0
reset
how to read this tab
guitar tuner
Autoscroll
slow
fast
+/-
esc
set tempo
stop
Help us to improve Ultimate-Guitar.com Take our survey!
×
Author
Tuning
B F# B E G# C#
Song: Coma
Band: Eighteen Visions
Album: Eighteen Visions

Intro
|------------------------------------------------------------------|
|------------------------------------------------------------------|
|------------------------------------------------------------------|
|------------------------------------------------------------------|
|-0-5-----7-----8-----7-----5-7---0-5----7------8-----7------------|
|-----7-5---7-5---7-5---7-5-----------7-5---7-5---7-5---7-5-7-7----|

Verse
|--------------------------------------------------------------|
|--------------------------------------------------------------|
|--------------------------------------------------------------|
|-5-0-5-8-7-5-----55-----5-0-5-8-7-5--00-----------------------|
|-5-0-5-8-7-5-----55-----5-0-5-8-7-5--00-----------------------|
|-5-0-5-8-7-5-----55-----5-0-5-8-7-5--00-151515-141414-5h7-----|
  : : : : : :     ::     : : : : : :  ::   ::::   :::: : :

Next part is the same as the intro

Then, “I Slide Away…”
|-----------------------------------------------------------------|
|-----------------------------------------------------------------|
|----------------1010101010101010----------------10101010--9999---|
|-0-5-0-5-7-5-0--x-x-x-x-x-x-x-x--0-5-0-5-7-5-0--x-x-x-x---xxxx---|
|-0-5-0-5-7-5-0--8-8-8-8-8-8-8-8--0-5-0-5-7-5-0--8-8-8-8---7777---|
|-0-5-0-5-7-5-0-------------------0-5-0-5-7-5-0-------------------|
(There is some type of effect on these chords but I saw Keith play it without the effect 
it’s right)

Chorus
Lead Guitar: “I Sit and Suffer…” 2x
|--------------------------------------------------------------------|
|--------------------------------------------------------------------|
|--------------------------------------------------------------------|
|-15141414151414141514151715141517--15141917151419171514191715141519-|
|--------------------------------------------------------------------|
|--------------------------------------------------------------------|

|---------------------------------------|
|---------(Trill these notes)-----------|
|---------------------------------------|
|--12~-----10~-----14~------12~---------|
|---------------------------------------|
|---------------------------------------|

Rhythm Guitar
|----------------------------------------------------------------|
|----------------------------------------------------------------|
|----------------------------------------------------------------|
|-0000000000000000--77777777--88888888-1010101010101010----------|
|-0000000000000000--77777777--88888888-1010101010101010----------|
|-0000000000000000--77777777--88888888—1010101010101010----------|
(this was really hard to hear)

Repeat Intro
Repeat Verse
Repeat Pre-Chorus
Repeat Chorus 2x

Bridge 2x
|---------------------------------------------------------------------|
|---------------------------------------------------------------------|
|---------------------------------------------------------------------|
|-0-5-0-5-7-5-0----------------------0-5-0-5-7-5-0--------------------|
|-0-5-0-5-7-5-0--5-----5-----5-------0-5-0-5-7-5-0--5-----5-----5-----|
|-0-5-0-5-7-5-0----7-5---7-5---7-0---0-5-0-5-7-5-0----7-5---7-5---7-0-|

Then, “I Slide Away…”
|--------------------------------------------------------|
|--------------------------------------------------------|
|--------------------------------------------------------|
|-0-5-0-5-7-5-0------------0-5-0-5-7-5-0-0----00----057--|
|-0-5-0-5-7-5-0------------0-5-0-5-7-5-0-0----00----057--|
|-0-5-0-5-7-5-0------------0-5-0-5-7-5-0-0----00----057--|


Before Final Chorus “I think I’m in a Coma Now…”
|---------------------------------------------------------------------|
|---------------------------------------------------------------------|
|---------------------------------------------------------------------|
|--15p14h15p14h15p14h15p14h15p14h15-17-15-14-15-17--------------------|
|---------------------------------------------------------------------|
|---------------------------------------------------------------------|

Repeat Chorus 2x
Repeat Intro

And there you go.
*Please Rate*
Suggest correction
What's this?
You can suggest a correction to this tab. Community and Mods will review your correction and vote to approve or reject it.
comments
We did not receive enough feedback on this tab! Please rate:
print report bad tab
1 2 3 4 5
guest
You may want to rate the tab now too:
select rating
Please do not post tabs as comments. Select "correction" instead!