Oops, an error
Loading. Please wait.

Guilty Pleasures Tab

183 views 1 this week
no commentswrite comment
1 2 3 4 5
2 more votes to show rating
add to favorites
launch autoscroll
font size
0
reset
how to read this tab
guitar tuner
Autoscroll
slow
fast
+/-
esc
set tempo
stop
Help us to improve Ultimate-Guitar.com Take our survey!
×
Band: Eigheen Visions
Song: Guilty Pleasures
Album: Obsession
Tuning: Drop C (C,G,C,F,A,D)
Tabbed by: Brendon Keye
E-mail: it_dies_today5@hotmail.com

|---------------------------------------------------------------|
|---------------------------------------------------------------|
|---------------------------------------------------------------|
|-2--2-555-2--2-555---------------------------------------------|
|-2--2-555-2--2-555---------------------------------------------|
|-2--2-555-2--2-555---------------------------------------------|
                                                                                
|---------------------------------------------------------------|
|---------------------------------------------------------------|
|---------------------------------------------------------------|
|-0-222-0-222-0-222-0-255---------------------------------------|
|-0-222-0-222-0-222-0-255---------------------------------------|
|-0-222-0-222-0-222-0-255---------------------------------------|

|---------------------------------------------------------------|
|---------------------Guitar 2 does only this part--------------|
|-------------------^-^^^---------------------^-^^^-------------|         
|-------------------0-255---------------------0-255-------------|
|-------------------0-255---------------------0-255-------------|
|-0-222-0-222-0-222-0-255---0-222-0-222-0-222-0-255-------------|

|---(Guitar 2)---------|----(Guitar 1)--------------------------|
|---3---3---3---3------|----------------------------------------|
|---2---2---2---2------|----------------------------------------|
|-000-000-000-000-002~-|-004-004-004-004-002~-------------------|
|-000-000-000-000-002~-|-004-004-004-004-002~-------------------|
|-000-000-000-000-002~-|-004-004-004-004-002~-------------------|   
  ..  ..  ..  ..  ..     ..  ..  ..  ..  ..

|------------------------------------------------|
|------------------------------------------------|
|------------------------------------------------|
|-0-222-0-222-0-222-0-255-0-222-0-222-0-222-0000-|                 
|-0-222-0-222-0-222-0-255-0-222-0-222-0-222-0000-|
|-0-222-0-222-0-222-0-255-0-222-0-222-0-222-0000-|

|---------------------------------------------------------------|
|------3-------3----3~------3-------3---------------------------|
|------2-------2----6~------2-------2---------------------------|
|-0~-000--0~-000-------0~-000--0~-000---------------------------|         
|-0~-000--0~-000-------0~-000--0~-000---------------------------|
|-0~-000--0~-000--00---0~-000--0~-000---------------------------|
      .       .            .       .

|------------------------------|  
|-------------3-------------3--|                 
|-------------2-------------2--|
|-00-00-0-00-00-00-00-0-00-00--|              
|-00-00-0-00-00-00-00-0-00-00--|
|-00-00-0-00-00-00-00-0-00-00--|
     .. .    .     .. .    .
|------------------------------------------|
|------------------------------------------|
|-----------2222---------------------------|
|-0000-2222-2222-4444-0000-2222------------|
|-0000-2222-0000-4444-0000-2222------------|
|-0000-2222------4444-0000-2222-444-5-2222-|

|-----------------------------|
|-----------------------------|
|-----------------------------|
|-0-0x4--0-0x4--0-0x4--0-0x4--|
|-0-0x4--0-0x4--0-0x4--0-0x4--|
|-0-0x4--0-0x4--0-0x4--0-0x4--|

Basically just figure out the orders and such.
Suggest correction
Give kudos to tab author, rate the tab!
1 2 3 4 5
comments
print report bad tab
guest
You may want to rate the tab now too:
select rating
Wanna post a correction for this tab? Suggest correction