Oops, an error
Loading. Please wait.

Our Darkest Days Bass Tab

version 1
version 1

Whole song

Interactive

237 views 1 this week
no commentswrite comment
1 2 3 4 5
2 more votes to show rating
add to favorites
launch autoscroll
font size
0
reset
guitar tuner
Autoscroll
slow
fast
+/-
esc
set tempo
stop
Help us to improve Ultimate-Guitar.com Take our survey!
×
Author
Difficulty
Tuning
novice
D A D G B E
(Bass Starts At 00:29)

G-------------------------|--------------------------| 4X
D----------------------2X-|-----------------------2X-| 
A-------------------------|--------------------------|
D-0-0-0-0-0-0-000-0-0-----|-4-4-4-4-4-4-444-4-4------|



G--------------------------| 2X
D--------------------------|
A-----------------7-5-5-3--|
D-0r--00r--07-77r----------|



G-------------------------|--------------------------| 2X
D----------------------2X-|-----------------------2X-| 
A-------------------------|--------------------------|
D-0-0-0-0-0-0-000-0-0-----|-4-4-4-4-4-4-444-4-4------|


G--------------------------| 4X
D--------------------------|
A-----------------7-5-5-3--|
D-0r--00r--07-77r----------|


G-------------------------|
D----------------------2X-|
A-------------------------|
D-0-0-0-0-0-0-000-0-0-----|
Suggest correction
Give kudos to tab author, rate the tab!
1 2 3 4 5
comments
print report bad tab
guest
You may want to rate the tab now too:
select rating
Wanna post a correction for this tab? Suggest correction