Oops, an error
Loading. Please wait.

Bachelor Girl Bass Tab

16 views 1 this week
no commentswrite comment
1 2 3 4 5
3 more votes to show rating
add to favorites
launch autoscroll
font size
0
reset
guitar tuner
Autoscroll
slow
fast
+/-
esc
set tempo
stop
Help us to improve Ultimate-Guitar.com Take our survey!
×
Author
Difficulty
novice
Song : https://www.youtube.com/watch?v=X16l6L_S7KU


[intro]

G|-------------------|-------------------|-------------------|-------------------|
D|-------------------|-------------------|--7---7---7---7----|--6---6---6---6----|
A|--4---4---4---4----|--6---6---6---6----|----7---7---7---7--|----6---6---6---6--|
E|----4---4---4---4--|----7---7---7---7--|-------------------|-------------------|


G|-------------------|-------------------|-------------------|-------------------|
D|-------------------|-------------------|--7---7---7---7----|--------------1----|
A|--4---4---4---4----|--6---6---6---6----|----7---7---7---7--|--2---2---2-4---2--|
E|----4---4---4---4--|----7---7---7---7--|-------------------|----2---2----------|


G|--------------|--------------|--------------|-----------|
D|--2--2--2--2--|--2--2--2--2--|--2--2--2--2--|--2--4--6--|
A|--------------|--------------|--------------|-----------|
E|--------------|--------------|--------------|-----------|


[verse 1]

G|------------------|------------------|------------------|------------------|
D|--2--2---2---2----|--2--2---2-----2--|------------------|------------------|
A|-------2---2---2--|-------2---2-4----|--2--2---2-----2--|--4--4---4-2---4--|
E|------------------|------------------|-------2---2-4----|-------4-----4----|


G|------------------|------------------|------------------|-------------------|
D|------------------|---------6---4-6--|------------------|------1---1-2-4-1--|
A|------------------|-------6---6------|------------------|--2-4---2----------|
E|--5--5-0-5-0-5-0--|--4--4------------|--5--5-0-5-0-2-5--|-------------------|


G|------------------|------------------|------------------|------------------|
D|--2--2---2---2----|--2--2---2-----2--|------------------|------------------|
A|-------2---2---2--|-------2---2-4----|--2--2---2-----2--|--4--4---4-2---4--|
D|------------------|------------------|-------2---2-4----|-------4-----4----|


G|------------------|------------------|------------------|------------------|
D|------------------|------------------|---------6---4-6--|------------------|
A|------------------|--2--2---2-----2--|-------6---6------|--4--4---4-2---4--|
E|--5--5-0-5-0-5-0--|-------2---2-4----|--4--4------------|-------4-----4----|


G|------------------|------------------|------------------|-------------------|
D|------------------|------------------|---------4-2---4--|------1---1-2-4-1--|
A|------------------|------------------|-------4-----4----|--2-4---2----------|
E|--5--5-0-5-0-2-5--|--5--5-0-5-0-2-5--|--2--2------------|-------------------|




G|-------------------|-------------------|-------------------|-------------------|
D|-------------------|-------------------|--7---7---7---7----|--6---6---6---6----|
A|--4---4---4---4----|--6---6---6---6----|----7---7---7---7--|----6---6---6---6--|
E|----4---4---4---4--|----7---7---7---7--|-------------------|-------------------|


G|-------------------|-------------------|-------------------|-------------------|
D|-------------------|-------------------|--7---7---7---7----|--------------1----|
A|--4---4---4---4----|--6---6---6---6----|----7---7---7---7--|--2---2---2-4---2--|
E|----4---4---4---4--|----7---7---7---7--|-------------------|----2---2----------|


G|------------------|------------------|------------------|-----------|
D|--2--2---2---2----|--2--2---2---2----|--2--2---2---2----|--2--4--6--|
A|-------2---2---2--|-------2---2---2--|-------2---2---2--|-----------|
E|------------------|------------------|------------------|-----------|


[verse 2]

G|------------------|------------------|------------------|------------------|
D|--2--2---2---2----|--2--2---2-----2--|------------------|------------------|
A|-------2---2---2--|-------2---2-4----|--2--2---2-----2--|--4--4---4-2---4--|
E|------------------|------------------|-------2---2-4----|-------4-----4----|


G|------------------|------------------|------------------|-------------------|
D|------------------|---------6---6----|------------------|------1---1-2-4-1--|
A|------------------|-------6---6---6--|------------------|--2-4---2----------|
E|--5--5-0-5-0-5-0--|--4--4------------|--5--5-0-5-0-2-5--|-------------------|


G|------------------|------------------|------------------|------------------|
D|--2--2---2---2----|--2--2---2-----2--|------------------|------------------|
A|-------2---2---2--|-------2---2-4----|--2--2---2-----2--|--4--4---4-2---4--|
E|------------------|------------------|-------2---2-4----|-------4-----4----|


G|------------------|------------------|------------------|------------------|
D|------------------|------------------|---------6---6----|------------------|
A|------------------|--2--2---2-----2--|-------6---6---6--|--4--4---4-2---4--|
E|--5--5-0-5-0-5-0--|-------2---2-4----|--4--4------------|-------4-----4----|


G|------------------|------------------|------------------|-------------------|
D|------------------|------------------|---------4-2---4--|------1---1-2-4-1--|
A|------------------|------------------|-------4-----4----|--2-4---2----------|
E|--5--5-0-5-0-2-5--|--5--5-0-5-0-2-5--|--2--2------------|-------------------|




G|-------------------|-------------------|-------------------|-------------------|
D|-------------------|-------------------|--7---7---7---7----|--6---6---6---6----|
A|--4---4---4---4----|--6---6---6---6----|----7---7---7---7--|----6---6---6---6--|
E|----4---4---4---4--|----7---7---7---7--|-------------------|-------------------|


G|-------------------|-------------------|-------------------|-------------------|
D|-------------------|-------------------|--7---7---7---7----|--------------1----|
A|--4---4---4---4----|--6---6---6---6----|----7---7---7---7--|--2---2---2-4---2--|
E|----4---4---4---4--|----7---7---7---7--|-------------------|----2---2----------|


G|------------------|-----------------|
D|--2--2---2---2----|--2--2---2----2--|
A|-------2---2---2--|-------2----4----|
E|------------------|-----------------|


[bridge]

G|--------|---------------|--------|------------------|
D|--------|---------------|--------|------------------|
A|--2--2--|--2--2----2h4--|--------|-------2-4-2---2--|
E|--------|---------------|--0--0--|--0--4-------4----|


G|--------|----------------|-------------------|-------------------|
D|--------|---------2------|-------------------|--------------1----|
A|--------|-----------4----|--2-2-2-2-2-2-2-2--|--2-2-2-2-2-4---2--|
E|--2--2--|--2--2-------2--|-------------------|-------------------|


[instrumental]

G|------------------|------------------|------------------|------------------|
D|--2--2---2---2----|--2--2---2-----2--|------------------|------------------|
A|-------2---2---2--|-------2---2-4----|--2--2---2-----2--|--4--4---4-2---4--|
E|------------------|------------------|-------2---2-4----|-------4-----4----|


G|------------------|------------------|------------------|------------------|
D|------------------|---------6---6----|------------------|------------------|
A|------------------|-------6---6---6--|------------------|------------------|
E|--5--5-0-5-0-5-0--|--4--4------------|--5--5-0-5-0-2-5--|--5--5-0-5-0-2-5--|


G|------------------|----------4-2------|
D|---------4-2---4--|------1-------4----|
A|-------4-----4----|--2-4---2-------2--|
E|--2--2------------|-------------------|




G|-------------------|-------------------|-------------------|-------------------|
D|-------------------|-------------------|--7---7---7---7----|--6---6---6---6----|
A|--4---4---4---4----|--6---6---6---6----|----7---7---7---7--|----6---6---6---6--|
E|----4---4---4---4--|----7---7---7---7--|-------------------|-------------------|


G|-------------------|-------------------|-------------------|-------------------|
D|-------------------|-------------------|--7---7---7---7----|--------------1----|
A|--4---4---4---4----|--6---6---6---6----|----7---7---7---7--|--2---2---2-4---2--|
E|----4---4---4---4--|----7---7---7---7--|-------------------|----2---2----------|


G|------------------|------------------|------------------|------------------|
D|--2--2---2---2----|--2--2---2-----2--|--2--2---2---2----|--2--2---2-----2--|
A|-------2---2---2--|-------2---2-4----|-------2---2---2--|-------2---2-4----|
E|------------------|------------------|------------------|------------------|


G|--------------------|--------|--2--4--|
D|--2--2---2---2---2--|--4--6--|--------|
A|-------2---2---2----|--------|--------|
E|--------------------|--------|--------|


[verse 3]

G|------------------|------------------|------------------|------------------|
D|--2--2---2---2----|--2--2---2-----2--|------------------|------------------|
A|-------2---2---2--|-------2---2-4----|--2--2---2-----2--|--4--4---4-2---4--|
E|------------------|------------------|-------2---2-4----|-------4-----4----|


G|------------------|------------------|------------------|-------------------|
D|------------------|---------6-4---6--|------------------|------1---1-2-4-1--|
A|------------------|-------6-----6----|------------------|--2-4---2----------|
E|--5--5-0-5-0-5-0--|--4--4------------|--5--5-0-5-0-2-5--|-------------------|


G|------------------|------------------|------------------|------------------|
D|--2--2---2---2----|--2--2---2-----2--|------------------|------------------|
A|-------2---2---2--|-------2---2-4----|--2--2---2-----2--|--4--4---4-2---4--|
E|------------------|------------------|-------2---2-4----|-------4-----4----|


G|------------------|------------------|------------------|-------------------|
D|------------------|--6--6---6---6----|--4--4---4---4----|------1---1-2-4-1--|
A|------------------|-------6---6---6--|-------4---4---4--|--2-4---2----------|
E|--5--5-0-5-0-5-0--|------------------|------------------|-------------------|


[outro]

G|------------------|------------------|------------------|------------------|
D|--2--2---2---2----|--2--2---2-----2--|------------------|------------------|
A|-------2---2---2--|-------2---2-4----|--2--2---2-----2--|--4--4---4-2---4--|
E|------------------|------------------|-------2---2-4----|-------4-----4----|


G|------------------|------------------|------------------|-------------------|
D|------------------|---------6-4---6--|--4--4---4---4----|------1---1-2-4-1--|
A|------------------|-------6-----6----|-------4---4---4--|--2-4---2----------|
E|--5--5-0-5-0-5-0--|--4--4------------|------------------|-------------------|

                                                                   (fade out)
G|------------------|------------------|------------------|------------------|
D|--2--2---2---2----|--2--2---2-----2--|------------------|------------------|
A|-------2---2---2--|-------2---2-4----|--2--2---2-----2--|--4--4---4-2---4--|
E|------------------|------------------|-------2---2-4----|-------4-----4----|



*****************

h : hammer-on

*****************

in regular sequence!
Suggest correction
Give kudos to tab author, rate the tab!
1 2 3 4 5
comments
print report bad tab
guest
You may want to rate the tab now too:
select rating
Wanna post a correction for this tab? Suggest correction