Oops, an error
Loading. Please wait.

Blue Valentines Day Bass Tab

13 views 1 this week
no commentswrite comment
1 2 3 4 5
3 more votes to show rating
add to favorites
launch autoscroll
font size
0
reset
guitar tuner
Autoscroll
slow
fast
+/-
esc
set tempo
stop
Help us to improve Ultimate-Guitar.com Take our survey!
×
Author
Difficulty
novice
Song : https://www.youtube.com/watch?v=oz_YftdB0i0


[Verse 1]

G|---------|---------|---------|---------|---------|---------|---------|---------|
D|---------|--6---6--|---------|------9--|---------|--6---6--|---------|------9--|
A|--7---7--|---------|--9---9--|---------|--7---7--|---------|--9---9--|---------|
E|---------|---------|---------|--7------|---------|---------|---------|--7------|


G|---------|---------|---------|---------|---------|---------|----------|--------|
D|---------|--6---6--|---------|------9--|---------|--6---6--|--7----7--|--9-----|
A|--7------|---------|--9---9--|---------|--7---7--|---------|----------|--------|
E|---------|---------|---------|--7------|---------|---------|----5-----|-----7--|


G|---------|---------|---------|---------|
D|---------|--6---6--|---------|------9--|
A|--7---7--|---------|--9---9--|---------|
E|---------|---------|---------|--7------|


[Verse 2]

G|---------|---------|---------|---------|---------|---------|---------|---------|
D|---------|--6---6--|---------|---------|---------|--6---6--|---------|------9--|
A|--7---7--|---------|--9---9--|---------|--7---7--|---------|--9---9--|---------|
E|---------|---------|---------|--7---7--|---------|---------|---------|--7------|


G|---------|---------|---------|---------|---------|---------|----------|--------|-----------|
D|---------|--6---6--|---------|------9--|---------|--6---6--|--7----7--|--9-----|------9----|
A|--7---7--|---------|--9---9--|---------|--7---7--|---------|----------|--------|--7-----7--|
E|---------|---------|---------|--7------|---------|---------|----5-----|-----7--|-----------|


[Verse 3]

G|---------------|---------------|-----------|------------|
D|------9--------|------9--------|-----------|------------|
A|--------7---7--|--------7---7--|-----------|------------|
E|--7------------|--7------------|--5---5-5--|--5-5--5-5--|


G|---------------|---------------|---------------|--------------|
D|------------4--|--5---4--------|---------------|-----------9--|
A|--------5------|--------7---7--|--9---9-9---9--|--------------|
E|--5---5--------|---------------|---------------|--7----7------|


G|---------|---------|---------|---------|---------|---------|----------|-----------|
D|---------|--6---6--|---------|------9--|---------|--6---6--|--7----7--|-----------|
A|--7---7--|---------|--9---9--|---------|--7---7--|---------|----------|-----------|
E|---------|---------|---------|--7------|---------|---------|----5-----|--7--7--7--|


G|---------|---------|---------|-----|
D|---------|--6---6--|--5---5--|-----|
A|--7---7--|---------|---------|--3--|
E|---------|---------|---------|-----|


[Instrumental]

G|---------------|--------------|---------------|---------------|
D|--3---------7--|--5---5----2--|--3---------7--|--5---5--------|
A|------3-0------|--------3-----|------3-0------|--------3---3--|
E|---------------|--------------|---------------|---------------|


G|----------------|--------------|---------------|
D|--3---------7---|--5---5----5--|--3-----3---3--|
A|------3-0-------|--------3-----|------3--------|
E|----------------|--------------|---------------|


[Verse 4]

G|---------------|--------------|------3-3----3--|------3----|
D|------5-3---3--|------5-3-----|----------3-----|-----------|
A|--3------------|--3--------0--|--1-------------|--1-----1--|
E|---------------|--------------|----------------|-----------|


G|------3----0--|--1---0-----1--|--0-----------|----------------|
D|--------1-----|--------3------|-----------5--|-----------5-2--|
A|--1-----------|---------------|------5-5-----|--3---3-3-------|
E|--------------|---------------|--------------|----------------|


G|---------------|---------------|----------------|-----------------|
D|--3---3-----7--|--5---5--------|--------7----7--|-----------------|
A|--------0------|--------3---3--|--8---8---------|-----------------|
E|---------------|---------------|----------5-----|--6---6-8--8--8--|


[Outro]

G|---------------|-----------|-----|
D|--------7---7--|-----------|-----|
A|--8---8--------|-----------|-----|
E|---------------|--6---6-8--|--1--|



******************************

in regular sequence!

******************************
Suggest correction
Give kudos to tab author, rate the tab!
1 2 3 4 5
comments
print report bad tab
guest
You may want to rate the tab now too:
select rating
Wanna post a correction for this tab? Suggest correction