Oops, an error
Loading. Please wait.

Innocence bass

version 1
version 1

Whole song

Interactive

by Eir Aoi
275 views 6 this week
no commentswrite comment
1 2 3 4 5
3 more votes to show rating
add to favorites
×
Save as Personal and add changes to this tab that will be seen only by you. Learn more ›
×
You can save this tab as Personal to edit and correct it or add notes. All changes will be seen only by you. Learn more »
launch autoscroll
font size
0
reset
guitar tuner
edit
Autoscroll
slow
fast
+/-
esc
set tempo
stop
0:07
F#|-----------------------------------------------------------------|
C#|-----------------------------------------------------------------|
G#|-1---------------3---------------5---------------5-5-5-5-5-5/17\-|
C#|-------------------------------------0-0-0-0-0-0-----------------|
    1 + 2 + 3 + 4 + 1 + 2 + 3 + 4 + 1 + 2 + 3 + 4 + 1 + 2 + 3 + 4 +

F#|-----------------------------------------------------------------|
C#|-----------------------------------------------------------------|
G#|-1-1-1-1-1-1-1---3-3-3-3-3-3-3---0-0-0-0-0-0-0---5-5-5-5-5-5-3-3-|
C#|-----------------------------------------------------------------|
    1 + 2 + 3 + 4 + 1 + 2 + 3 + 4 + 1 + 2 + 3 + 4 + 1 + 2 + 3 + 4 +

F#|-----------------------------------------------------------------|
C#|-----------------------------------------------------------------|
G#|-1-1-1-1-1-1-1-1-3-3-3-3-3-3-3-3-5-------------------------------|
C#|---------------------------------------------------------0-0-----|
    1 + 2 + 3 + 4 + 1 + 2 + 3 + 4 + 1 + 2 + 3 + 4 + 1 + 2 + 3 + 4 +

Rest

Verse 0:29
F#|-----------------------------------------------------------------|
C#|-----------------------------------------------------------------|
G#|-1---1-1-1-1-1-1---1-1-1-1-1-1-1-3---3-3-3-3-3-4---4-4-4-4-4-4-4-|
C#|-----------------------------------------------------------------|
    1 + 2 + 3 + 4 + 1 + 2 + 3 + 4 + 1 + 2 + 3 + 4 + 1 + 2 + 3 + 4 +

F#|-----------------------------------------------------------------|
C#|-12------------------------------10--------------7---------------|
G#|-----------------12--------------------------12\------------/13\-|
C#|-----------------------------------------------------------------|
    1 + 2 + 3 + 4 + 1 + 2 + 3 + 4 + 1 + 2 + 3 + 4 + 1 + 2 + 3 + 4 +

F#|-----------------------------------------------------------------|
C#|-----------------------------------------------------------------|
G#|-1---1-1-1-1-1-1---1-1-1-1-1-1-1-3---3-3-3-3-3-4---4-4-4-4-------|
C#|-----------------------------------------------------------3-5-3-|
    1 + 2 + 3 + 4 + 1 + 2 + 3 + 4 + 1 + 2 + 3 + 4 + 1 + 2 + 3 + 4 +

Pre Chorus 0:45
F#|-----------------------------------------------------------------|
C#|-----------------------------------------------------------------|
G#|---------------------------------0---0-0-0-0-0-0-0-0-0-0-0---0---|
C#|-5---5-5-5-5-5-5-5-5-5-5-5---5-----------------------------------|
    1 + 2 + 3 + 4 + 1 + 2 + 3 + 4 + 1 + 2 + 3 + 4 + 1 + 2 + 3 + 4 +

F#|-----------------------------------------------------------------|
C#|---------------------------------------------------------7-7-----|
G#|-1---1-1-1-1-1-1-2-2-2-2-2-2-2-2-3---------------0-0-------------|
C#|-----------------------------------------------------------------|
    1 + 2 + 3 + 4 + 1 + 2 + 3 + 4 + 1 + 2 + 3 + 4 + 1 + 2 + 3 + 4 +

Chorus 0:55
F#|-----------------------------------------------------------------|
C#|-----------------------------------------------------------------|
G#|-1---1-1-1-1-1-1-3-3-3-3-3-3-3-1-0---0-0-0-0-0-0-5---5-5-5-5-3-3-|
C#|-----------------------------------------------------------------|
    1 + 2 + 3 + 4 + 1 + 2 + 3 + 4 + 1 + 2 + 3 + 4 + 1 + 2 + 3 + 4 +

F#|-----------------------------------------------7-----------------|
C#|---------------------------------------------7-----7-5-4-4-------|
G#|-1-1-1-1-1-1-1-1-3-3-3-3-3-3-3---5---5-5-------------------5-5---|
C#|-----------------------------------------------------------------|
    1 + 2 + 3 + 4 + 1 + 2 + 3 + 4 + 1 + 2 + 3 + 4 + 1 + 2 + 3 + 4 +

F#|-----------------------------------------------------------------|
C#|-----------------------------------------------------------------|
G#|-1---1-1-1-1-1-1-3-3-3-3-3-3-3-1-0-0-0-0-0-0-0-0-5-5-5-5-5-5-3-3-|
C#|-----------------------------------------------------------------|
    1 + 2 + 3 + 4 + 1 + 2 + 3 + 4 + 1 + 2 + 3 + 4 + 1 + 2 + 3 + 4 +

F#|---------------------------------------------------5-------------|
C#|-----------------------------------------------------5-----------|
G#|-1---1-1-1-1-1-1-1-1-1-1-1-1-1-1-3-3-3-3-3-3-3-3-3-----3-3-3-3-3-|
C#|-----------------------------------------------------------------|
    1 + 2 + 3 + 4 + 1 + 2 + 3 + 4 + 1 + 2 + 3 + 4 + 1 + 2 + 3 + 4 +

F#|-----------------------------------------------------------------|
C#|--------------------------------------------/8-8-8-8-8-8-8-8-8-8-|
G#|-5---5-5-5-5-5-5-3-3-3-3-3-3-3-3-1-1-1-1-1-1---------------------|
C#|-----------------------------------------------------------------|
    1 + 2 + 3 + 4 + 1 + 2 + 3 + 4 + 1 + 2 + 3 + 4 + 1 + 2 + 3 + 4 +

F#|------------------------------------------|
C#|-10-10-10---------------------------------|
G#|------------------------------------------|
C#|----------10-10-10-10-10-10---------------|
    1  +  2  +  3  +  4  +  1  + 2 + 3 + 4 + 

Interlude 1:24
F#|-----------------------------------------------------------------|
C#|-------------------------------------------------0-0-0-2-3-2-0---|
G#|-1---1-1-1-1-1-1-3-3-3-3-3-3-3-1-0-0-0-0-0-0-0-3---------------3-|
C#|-----------------------------------------------------------------|
    1 + 2 + 3 + 4 + 1 + 2 + 3 + 4 + 1 + 2 + 3 + 4 + 1 + 2 + 3 + 4 +

F#|---------------------------------------7--------------------------|
C#|-------------------------------------7-----7----------------------|
G#|-1-1-1---1---1---3-3-3-3-3-3-3-4-5-5---------5--------------------|
C#|-------------------------------------------------0----------------|
    1 + 2 + 3 + 4 + 1 + 2 + 3 + 4 + 1 + 2 + 3 + 4 + 1 + 2 + 3 + 4 +

Rest

Verse 1:39
F#|---------------------------------------------------------------------|
C#|-----------------------------------------------------------------3---|
G#|-12\-1---1-1-1-1-1-1---1-1-1-1-1-1-1-3---3-3-3-3-3-4---4-4-4-4-5-----|
C#|---------------------------------------------------------------------|
    4 + 1 + 2 + 3 + 4 + 1 + 2 + 3 + 4 + 1 + 2 + 3 + 4 + 1 + 2 + 3 + 4 +

F#|-------------------------------------------------------------2-5-|
C#|-----3---------------3-------3-------3---------------3---3-5-----|
G#|-5-5---5-3-5---5---5---5-3-5-----5-5---5-3-5---5---5---5---------|
C#|-----------------------------------------------------------------|
    1 + 2 + 3 + 4 + 1 + 2 + 3 + 4 + 1 + 2 + 3 + 4 + 1 + 2 + 3 + 4 +

F#|-----------------------------------------------------------------|
C#|-------------------------------------------------------------3---|
G#|-1---1-1-1-1-1-1---1-1-1-1-1-1-1-3---3-3-3-3-3-4---4-4-4-4-5-----|
C#|-----------------------------------------------------------------|
    1 + 2 + 3 + 4 + 1 + 2 + 3 + 4 + 1 + 2 + 3 + 4 + 1 + 2 + 3 + 4 +

Pre Chorus 1:55
F#|-----------------------------------------------------------------|
C#|-----------------------------------------------------------------|
G#|---------------------------------0---0-0-0-0-0-0-0-0-0-0-0---0---|
C#|-5---5-5-5-5-5-5-5-5-5-5-5---5-----------------------------------|
    1 + 2 + 3 + 4 + 1 + 2 + 3 + 4 + 1 + 2 + 3 + 4 + 1 + 2 + 3 + 4 +

F#|-----------------------------------------------------------------|
C#|-------------------------------------5-3-2-0-------------7-7-----|
G#|-1---1-1-1-1-1-1-2-2-2-2-2-2-2-2-3-3---------3-2-0-0-------------|
C#|-----------------------------------------------------------------|
    1 + 2 + 3 + 4 + 1 + 2 + 3 + 4 + 1 + 2 + 3 + 4 + 1 + 2 + 3 + 4 +

Chorus 2:05
F#|-----------------------------------------------------------------|
C#|-----------------------------------------------------------------|
G#|-1---1-1-1-1-1-1-3-3-3-3-3-3-3-1-0-0-0-0-0-0-0-0-5---5-5-5-5-3-3-|
C#|-----------------------------------------------------------------|
    1 + 2 + 3 + 4 + 1 + 2 + 3 + 4 + 1 + 2 + 3 + 4 + 1 + 2 + 3 + 4 +

F#|-------------------------------------------7---------------------|
C#|---------------------------------------7-------7---5-4-----------|
G#|-1-1-1-1-1-1-1-1-3-3-3-3-3-3-3-3-5---5-----------------5---3-5-3-|
C#|-----------------------------------------------------------------|
    1 + 2 + 3 + 4 + 1 + 2 + 3 + 4 + 1 + 2 + 3 + 4 + 1 + 2 + 3 + 4 +

F#|-----------------------------------------------------------------|
C#|-------------------------------------------------------3---2-0---|
G#|-1---1-1-1-1-1-1-3-3-3-3-3-3-3-1-0-0-0-0-0-0-0-3-5-5-5---------3-|
C#|-----------------------------------------------------------------|
    1 + 2 + 3 + 4 + 1 + 2 + 3 + 4 + 1 + 2 + 3 + 4 + 1 + 2 + 3 + 4 +

F#|-----------------------------3-----------------------------------|
C#|---------------------------3-------------------------------------|
G#|-1---1-1-1-1-1-1-1-1-1-0-1-------3---3-3-3-3-3-3-3---------------|
C#|-----------------------------------------------------------------|
    1 + 2 + 3 + 4 + 1 + 2 + 3 + 4 + 1 + 2 + 3 + 4 + 1 + 2 + 3 + 4 +

Rest

Interlude 2:32
F#|----------------------------------------------------10-9-12-------------------17---|
C#|-----------------------------0-3-0-3-7-10-7/10-7-10---------12-15-12-15-12/15------|
G#|---------------0-1-3-0-3-0-3-------------------------------------------------------|
C#|-3-\---0-0-3-0---------------------------------------------------------------------|
    + 4 + 1 + 2 + 3 + 4 + 1 + 2 + 3 + 4 + 1  + 2  + 3  +  4 +  1  +  2  +  3  +  4  +

Solo 2:37
F#|-----7-----------------------------------5--------------------------|
C#|---7---7-3-5-3-5-3-2-0-----------------7---7-5-7---5/10---10---12---|
G#|-5---------------------3-3---3---5---5-----------8------------------|
C#|--------------------------------------------------------------------|
    1 + 2 + 3 + 4 + 1 + 2 + 3 + 4 + 1 + 2 + 3 + 4 + 1 + 2  + 3  + 4  +

F#|-------17-14-------------------------------------------------12-10----------------------------|
C#|----15-------15-17-15-17-15-12-15-12-------------------12-12-------12-10-10-------------------|
G#|-17----------------------------------15-12-15-12-10-12----------------------12-----------10\--|
C#|-------------------------------------------------------------------------------10---10--------|
    1  +  2  +  3  +  4  +  1  +  2  +  3  +  4  +  1  +  2  +  3  +  4  +  1  +  2  + 3  + 4  +

2:47
F#|-----------------------------------------------------------------|
C#|-----------------------------------------------------------------|
G#|-5-----3-----0-------------------5-----------------------0-0-3---|
C#|-------------------5-----3---5---------0-0-----0---0---5---------|
    1 + 2 + 3 + 4 + 1 + 2 + 3 + 4 + 1 + 2 + 3 + 4 + 1 + 2 + 3 + 4 +

F#|-----------------------------------------------------------------|
C#|-----------------------------------------------------------------|
G#|-5-----------------------0-0-3-3-5-----------------------0-0-3-3-|
C#|-------0-0-----0---0---5---------------0-0-----0---0---5---------|
    1 + 2 + 3 + 4 + 1 + 2 + 3 + 4 + 1 + 2 + 3 + 4 + 1 + 2 + 3 + 4 +

2:58
F#|-----------------------------------------------------------------|
C#|---------------------------------2-2-2-3-3-3-4-4-4-5-5-5-6-6-7---|
G#|-5-5-5-3-3-3-0-0-0-------0---3-----------------------------------|
C#|-------------------5-5-5-----------------------------------------|
    1 + 2 + 3 + 4 + 1 + 2 + 3 + 4 + 1 + 2 + 3 + 4 + 1 + 2 + 3 + 4 +

F#|---------------------------------|
C#|---------------------------------|
G#|-7---7-7-0-7-0-0-0-0-0-0---------|
C#|---------------------------------|
    1 + 2 + 3 + 4 + 1 + 2 + 3 + 4 + 

Rest

Pre Chorus 3:11
F#|--------------------------------------|
C#|---/-12--------------10---------------|
G#|------------------------------/15-12\-|
C#|--------------------------------------|
    4 + 1 + 2 + 3 + 4 + 1 + 2 + 3 +  4 + 

F#|-----------------------------------------------------------------|
C#|---------------------------------------------------------7-7-----|
G#|-1---1-1-1-1-1-1-2-2-2-2-2-2-2-2-3---------------0-0-------------|
C#|-----------------------------------------------------------------|
    1 + 2 + 3 + 4 + 1 + 2 + 3 + 4 + 1 + 2 + 3 + 4 + 1 + 2 + 3 + 4 +

Chorus 3:19
F#|-----------------------------------------------------------------|
C#|-----------------------------------------------------------------|
G#|-1-------------3-r---------------0---------------5-5-0-5-r-5-3-r-|
C#|-----------------------------------------------------------------|
    1 + 2 + 3 + 4 + 1 + 2 + 3 + 4 + 1 + 2 + 3 + 4 + 1 + 2 + 3 + 4 +

F#|-------------------------------------------7---------------------|
C#|----------------------------------------5----5-4---5-4-----------|
G#|-1---1-1-1-1-1-1-3-3-3-3-3-3-3-4-5---------------------5---3-5-3-|
C#|-----------------------------------------------------------------|
    1 + 2 + 3 + 4 + 1 + 2 + 3 + 4 + 1 + 2 + 3 + 4 + 1 + 2 + 3 + 4 +

F#|-----------------------------------------------------------------|
C#|-------------------------------------------------0-0-0-2-3-2-0---|
G#|-1---1-1-1-1-1-1-3-3-3-3-3-3-3-1-0-0-0-0-0-0-0-3---------------3-|
C#|-----------------------------------------------------------------|
    1 + 2 + 3 + 4 + 1 + 2 + 3 + 4 + 1 + 2 + 3 + 4 + 1 + 2 + 3 + 4 +

F#|-------------------------------------------------------------------|
C#|--------------/8-8-8-8-8-8------------------------------10---------|
G#|-1---1-1-1-1-1-------------1-1-1-3-3-3-3-3-3-3-3-3--/10------3-3-3-|
C#|-------------------------------------------------------------------|
    1 + 2 + 3 + 4 + 1 + 2 + 3 + 4 + 1 + 2 + 3 + 4 + 1 + 2  +  3 + 4 +

3:40
F#|-----------------------------------------------------------------|
C#|-------------------------------------------------0-0-0-2-3-2-0---|
G#|-1---1-1-1-1-1-1-3-3-3-3-3-3-3-1-0-0-0-0-0-0-0-3---------------3-|
C#|-----------------------------------------------------------------|
    1 + 2 + 3 + 4 + 1 + 2 + 3 + 4 + 1 + 2 + 3 + 4 + 1 + 2 + 3 + 4 +

F#|-------------------------------------------7---------------------|
C#|---------------------------------------7-------7---5-5-4-4-------|
G#|-1-1-1-1-1-1-1-1-3-3-3-3-3-3-3-3-5-5-----------------------5-5-3-|
C#|-----------------------------------------------------------------|
    1 + 2 + 3 + 4 + 1 + 2 + 3 + 4 + 1 + 2 + 3 + 4 + 1 + 2 + 3 + 4 +

F#|-----------------------------------------------------------------|
C#|-----------------------------------------------------------------|
G#|-1---1-1-1-1-1-1-3-3-0-3-3-3-3-1-0---0-0-0-0-3-5-5-5---------5-3-|
C#|-----------------------------------------------------0-0-0-------|
    1 + 2 + 3 + 4 + 1 + 2 + 3 + 4 + 1 + 2 + 3 + 4 + 1 + 2 + 3 + 4 +

F#|-------------------------------------------------------------------|
C#|--------------/8-8-8-8-8-8-8-8-8------------------------10---------|
G#|-1---1-1-1-1-1-------------------3-3-3-3-3-3-3-3-3--/10------3-3-3-|
C#|-------------------------------------------------------------------|
    1 + 2 + 3 + 4 + 1 + 2 + 3 + 4 + 1 + 2 + 3 + 4 + 1 + 2  +  3 + 4 +

F#|-----------------------------------------------------------------|
C#|----------------------------------------------/8-8-8-8-8-8-8-8-8-|
G#|-5---5-5-5-5-5-5-3-3-3-3-3-3-3-3-1---1-1-1-1-1-------------------|
C#|-----------------------------------------------------------------|
    1 + 2 + 3 + 4 + 1 + 2 + 3 + 4 + 1 + 2 + 3 + 4 + 1 + 2 + 3 + 4 +

F#|------------------------------------------|
C#|-10-10-10-10-------------10\--------------|
G#|------------------------------------------|
C#|-------------10-10-10-10------------------|
    1  +  2  +  3  +  4  +  1  + 2 + 3 + 4 +

Outro 4:09
F#|-----------------------------------------------------------------|
C#|-------------------------------------------------0-0-0-2-3-2-0---|
G#|-1-1-1-1-1-1-1-1-3-3-3-3-3-3-3-1-0-0-0-0-0-0-0-3---------------3-|
C#|-----------------------------------------------------------------|
    1 + 2 + 3 + 4 + 1 + 2 + 3 + 4 + 1 + 2 + 3 + 4 + 1 + 2 + 3 + 4 +

F#|------------------------------------------------9-11---9---------------|
C#|---------------------------------0-0---------12----------12------------|
G#|-1-1-1-1-1-1-1---3-3-3-3-3-3-3---------10-12----------------12---3-5-3-|
C#|-----------------------------------------------------------------------|
    1 + 2 + 3 + 4 + 1 + 2 + 3 + 4 + 1 + 2 +  3  +  4 +  1 + 2  +  3 + 4 +

F#|-----------------------------------------------------------------|
C#|-----------------------------------------0-------0-0-3-3-3-2-0---|
G#|-1---1-1-1-1-1---3-3-3-3-3-3-3-1-0-0-0-3---0-3-3---------------3-|
C#|-----------------------------------------------------------------|
    1 + 2 + 3 + 4 + 1 + 2 + 3 + 4 + 1 + 2 + 3 + 4 + 1 + 2 + 3 + 4 +

F#|-----------------------------------------------------------------|
C#|-----------------------------------------------------------------|
G#|-1---1-1-1-1-1-0---0-0-3---0-3-5---------------------------------|
C#|-------------------------------0---------------------------------|
    1 + 2 + 3 + 4 + 1 + 2 + 3 + 4 + 1 + 2 + 3 + 4 + 1 + 2 + 3 + 4 +
Tabbed by Dave Vucko

            
            
Suggest correction
Creating personal tab
Creating personal tab
You can edit any tab online and save it as your Personal.

You can edit, replace or remove any tab part or add personal notes – all changes will be seen only by you.

Personal tabs can be accessed anytime from any device, even offline.
Learn more »
Give kudos to tab author, rate the tab!
1 2 3 4 5
comments
print report bad tab
guest
You may want to rate the tab now too:
select rating
Wanna post a correction for this tab? Suggest correction