Oops, an error
Loading. Please wait.

Krankes Herz Tab

352 views 1 this week
no commentswrite comment
1 2 3 4 5
please rate
add to favorites
launch autoscroll
font size
0
reset
how to read this tab
guitar tuner
Autoscroll
slow
fast
+/-
esc
set tempo
stop
Help us to improve Ultimate-Guitar.com Take our survey!
×
Author
Difficulty
Tuning
intermediate
C G C F A D
Artist: Eisblut
Tuning: Drop C


Bass Intro:

f|-------------------------------------|
C|-------------------------------------|
G|-------------------------------------|
C|-77777777-33333333-77777777-00000000-|


Riff 1:

d|---------------------------------|
a|---------------------------------|
f|-7----7-5------5-7----7----------|
C|--5/7-----7-5-7----7-5--5--5/7*--|
G|---------------------------------|
C|---------------------------------|


Riff 2:

d|------------------------------|
a|------------------------------|
f|------------7*----------------|
C|-5/777-5555----5/777---555----|
G|---------------------------5~-|
C|------------------------------|


Riff 3:

d|---------------------------------------------------|
a|---------------------------------------------------|
f|---------------------------------------------------|
C|-77757555/10--77757555/10--777575555--77757555/10--|
G|-77757555/10--77757555/10--777575555--77757555/10--|
C|-77757555/10--77757555/10--777575555--77757555/10--|
PM ........     ........     ........   ........


Chorus:

d|-----------------------------------------|
a|-----------------------------------------|
f|-----------------------------------------|
C|-7777-3333-7777-3333-7777-3333-5555-0000-|
G|-7777-3333-7777-3333-7777-3333-5555-0000-|
C|-7777-3333-7777-3333-7777-3333-5555-0000-|


Bridge:

d|---------------------------|
a|---------------------------|
f|---------------------------|
C|-2----------2----------222-|
G|-2----------2----------222-|
C|-2----------2----------222-|
PM                       ...


Riff 4:

d|--------------|     d|---------| 
a|--------------|     a|---------| 
f|-------0-5-4--|     f|--77-66--|
C|-222222-------|  3x C|-555444--| 1x
G|-222222-------|     G|-555444--|
C|-222222-------|     C|-555444--|
PM .                     .  .



Play:

Bass Intro  2x
Riff 1      2x
Riff 2      2x
Riff 3      2x
Riff 2      2x
Riff 3      2x
Chorus      4x
Bridge      1x
Riff 4      7x
Riff 3      2x
Chorus      5x


End with:

d|----|
a|----|
f|-9~-|
C|-7~-|
G|-7~-|
C|-7~-|



Tabbed by deathunlimitedaustria@hotmail.com
P.S.:
Riff one is not really good, but it sounds not bad
Suggest correction
Give kudos to tab author, rate the tab!
1 2 3 4 5
comments
print report bad tab
guest
You may want to rate the tab now too:
select rating
Please do not post tabs as comments. Select "correction" instead!