Oops, an error
Loading. Please wait.

Go Away bass

by Eisley
412 views 1 this week
no commentswrite comment
1 2 3 4 5
3 more votes to show rating
add to favorites
×
Save as Personal and add changes to this tab that will be seen only by you. Learn more ›
×
You can save this tab as Personal to edit and correct it or add notes. All changes will be seen only by you. Learn more »
launch autoscroll
font size
0
reset
guitar tuner
edit
Autoscroll
slow
fast
+/-
esc
set tempo
stop
Author
-------------------------------------------------------------------------------
			     Go away - Eisley
-------------------------------------------------------------------------------

Tabbed By : Valerie L
e-mail:  iloled@yahoo.com
Tuning: standard

Intro
G|----------------------------|-----------------------------|
D|----------------------------|-----------------------------|
A|--------------6666-98-999999|---------------666666-999999-|
E|777777-999999---------------|-777777-999999---------------|

Verse "I am a part of your soul..."
G|------------------8~-------------11p10----|
D|---------9~---11~------11~--9~---------11-|
A|-9~--8~-----------------------------------|
E|------------------------------------------|

Pre-Chorus "I have to reach my arms.."
G|--------------------8~-8----11p10-----------|
D|-----------9~--11~-------11-------11-9~-----|
A|-9~-9-8~-8------------------------------9~--|
E|--------------------------------------------|

Chorus 
G|----------------------------|
D|----------------------------|
A|--------------666666-999999-|
E|777777-999999---------------| x2

Intro
G|----------------------------|
D|----------------------------|
A|--------------6666-98-999999|
E|777777-999999---------------|

Verse x1

Pre-Chorus "Tumbling down, down.." slide slowly down
G|--------------------8~-8----11p10-----------|--------|
D|-----------9~--11~-------11-------11-9~-----|--------|
A|-9~-9-8~-8------------------------------9~--|-9~-9\--|
E|--------------------------------------------|--------|

Chorus changes to the B variation on A string 
G|------------------------------|
D|-----------------------444444-|
A|22222--44444---66666----------|
E|-----2-------2-------2--------| x2

Bridge "I am holding you---" play softly
G|---------------------------|
D|---------------------------|
A|--------------666666-999999|
E|777777-999999--------------|x2

G|--------------------------------------------------|
D|--------------------------------------------------|
A|--8h9---8h9---8h9---8h9-6-8h9-6-8h9---11p9---11p9-|
E|7-----7-----8-----8-----------------9------9------|

G|------------------------------------------|
D|------------------------------------------|
A|--8h9---8h9---8h9---8h9-6-8h9-6-8h9--1/9\-|
E|7-----7-----8-----8-----------------------|

Chorus x2

Outro chorus
G|--------------------------------------------------------|
D|--------------------------------------------------------|
A|--------------666666-999999-666666-999999-666666-999999-|
E|777777-999999-------------------------------------------|
Suggest correction
Creating personal tab
Creating personal tab
You can edit any tab online and save it as your Personal.

You can edit, replace or remove any tab part or add personal notes – all changes will be seen only by you.

Personal tabs can be accessed anytime from any device, even offline.
Learn more »
Give kudos to tab author, rate the tab!
1 2 3 4 5
comments
print report bad tab
guest
You may want to rate the tab now too:
select rating
Wanna post a correction for this tab? Suggest correction