Oops, an error
Loading. Please wait.

Mr Pine tab

by Eisley
685 views 1 this week
2 commentsread comments
1 2 3 4 5
1 last vote to show rating
add to favorites
×
Save as Personal and add changes to this tab that will be seen only by you. Learn more ›
×
You can save this tab as Personal to edit and correct it or add notes. All changes will be seen only by you. Learn more »
launch autoscroll
font size
0
reset
how to read this tab
guitar tuner
edit
Autoscroll
slow
fast
+/-
esc
set tempo
stop
Author
Difficulty
This is my first tab. It's pretty close I'm sure of that. 

Keyboard Intro for Guitar
e----5-------------------------------------|
B--5---5---3h5-----------------------------|
G------------------------------------------|
D------------------------------------------|
A------------------------------------------|
E------------------------------------------|

Then the guitar is gonna come in and the keyboard does this:

e----5---------0-2-0---------------|
B--5---5---1-3-------3-------------|
G----------------------------------|
D----------------------------------|
A----------------------------------|
E----------------------------------|

The bass is gonna play this:
e----------------------------------|
B----------------------------------|
G----------------------------------|
D------------2-4-2-----------------| 
A---12-7-3-5--------5--------------|
E-5--------------------------------|  

The guitar part during the chorus is:
e----------------------------------|
B----------------------------------|
G----------------------------------|
D----------------------------------| 
A----------------------------------|
E-15-15-15--13-13-12-12-12--4-4-4-4|

I'll add some more of this later.  

            
            
Suggest correction
Creating personal tab
Creating personal tab
You can edit any tab online and save it as your Personal.

You can edit, replace or remove any tab part or add personal notes – all changes will be seen only by you.

Personal tabs can be accessed anytime from any device, even offline.
Learn more »
Give kudos to tab author, rate the tab!
1 2 3 4 5
comments
print report bad tab
2 comments total.
0 reply
oathkeeper_p 10 Nov 30, 2008 09:37 AM

The guitar part during the chorus is:
e----------------------------------|
B----------------------------------|
G----------------------------------|
D----------------------------------|
A-15-15-15--13-13-12-12-12--3-3-3-3|
E----------------------------------|

I messed up when I posted this tab last time. I couldn't remember my password to that account.

0 reply
oathkeeper_p 10 Nov 30, 2008 09:38 AM

Then the guitar is gonna come in and the keyboard does this:

e----5---------0-2-0---------------|
B--1---5---1-3-------3-------------|
G----------------------------------|
D----------------------------------|
A----------------------------------|
E----------------------------------|

This sounds a lot better.

guest
You may want to rate the tab now too:
select rating
Wanna post a correction for this tab? Suggest correction