Oops, an error
Loading. Please wait.

Watch It Die Chords

version 4
version 4

Whole song

127 views 1 this week
no commentswrite comment
1 2 3 4 5
please rate
add to favorites
launch autoscroll
font size
0
reset
transpose
0
reset
simplify chords
display chords
guitar tuner
Autoscroll
slow
fast
+/-
esc
set tempo
stop
Help us to improve Ultimate-Guitar.com Take our survey!
×
'Watch It Die' 
Performed by Eisley
Transcribed by JRock



VERSE 1
Dm              F                 Bb        F
If I came in the morning would you still be here?
Dm                  F        Bb   F
And if I left in the evening, too?
Dm            F              Bb           F
Well I don't have the time to keep you in line
Dm      F       Bb   F
I don't have the time


PRE-CHORUS
Gm       F        C               F
And do I fail to know what's in your eyes?
Gm    F     C   F
Do I fail to know?
Gm    F      C                   F
Do I fail to know what's in your eyes?
Gm    F     C   Csus4
Do I fail to know?


CHORUS (see Chorus Riff below)
      F       Gm  Bb
'Cause my love for you has died tonight
F      Gm      Bb
I don't know how to own you
F      Gm  Bb
My love for you was faulty
F             Gm         Dm
Now baby just watch it die


VERSE 2
Dm                  F            Bb   F
So I caught you in a lie, singin' hey
Dm           F         Bb    F
I'll never be what you want, no
Dm       F           Bb                  F
Fabulous teeth and a smile that'll melt your heart
Dm      F                   Bb    F
Oh baby don't you know how to play


PRE-CHORUS
Gm       F        C               F
And do I fail to know what's in your eyes?
Gm    F     C   F
Do I fail to know?
Gm    F        C                  F
Do I fail to know what's in your eyes?
Gm    F     C   Csus4
Do I fail to know?



CHORUS
      F       Gm  Bb
'Cause my love for you has died tonight
F      Gm      Bb
I don't know how to own you
F      Gm  Bb
My love for you was faulty
F         Gm            Dm
Now baby just watch it die




BRIDGE
Gm                F            Bb   F
I caught you in a lie, singin' hey
Gm                F            Bb   F
I caught you in a lie, singin' hey
Gm                F            Bb   F
I caught you in a lie, singin' hey
Gm                F            Bb
I caught you in a lie, singin' hey







CHORUS
      F       Gm  Bb
'Cause my love for you has died tonight
F      Gm     Bb
I don't know how to own you
F      Gm  Bb
My love for you was faulty
F         Gm            Dm
Now baby just watch it die




Chorus Riff (let chords ring)

  F            Gm   Bb             
                                      F            Gm   Bb
e|--1------------3-|-6-------------|--1------------3-|-6-------------|
B|--1------------3-|-6-------------|--1------------3-|-6-------------|
G|--2------------3-|-7-------------|--2------------3-|-7-------------|
D|--3------------5-|-8-------------|--3------------5-|-8-------------|
A|--3------------5-|-8-------------|--3------------5-|-8-------------|
E|--1------------3-|-6-------------|--1------------3-|-6-------------|


  F            Gm   Bb             
                                      F            Gm  Dm
e|--1------------3-|-6-------------|--1------------3-|-5-------------|
B|--1------------3-|-6-------------|--1------------3-|-6-------------|
G|--2------------3-|-7-------------|--2------------3-|-7-------------|
D|--3------------5-|-8-------------|--3------------5-|-7-------------|
A|--3------------5-|-8-------------|--3------------5-|-5-------------|
E|--1------------3-|-6-------------|--1------------3-|---------------|
Suggest correction new What's this?
You can suggest a correction to this tab. Community and Mods will review your correction and vote to approve or reject it.
comments
We did not receive enough feedback on this tab! Please rate:
print report bad tab
1 2 3 4 5
guest
You may want to rate the tab now too:
select rating
Please do not post tabs as comments. Select "correction" instead!