Oops, an error
Loading. Please wait.

Ti Si Sav Moj Bol Tab

version 1
version 1

Whole song

Interactive

10,366 views 30 this week
no commentswrite comment
1 2 3 4 5
excellent!
x 2
add to favorites
launch autoscroll
font size
0
reset
how to read this tab
guitar tuner
Tab Pro tools
  • play this tab
  • loop segment
  • change instrument
  • show fretboard
  • metronome
Autoscroll
slow
fast
+/-
esc
set tempo
stop
Contributor
Difficulty
novice
ekv 
ti si sav moj bol
tabed by scepa


intro:
Bsus4            Asus4          E               Em
E|-----2----------|---------------|----2----------|---------------|
B|----------------|---------------|---------------|--0------------|
G|---------------2|---------------|--------------2|---------------|
D|---4-----4---4--|--0---0-2---2-4|--4-----4---4--|------0---0-2-4|
A|-2-----2---2----|0---0-----0----|---------------|---------------|
E|----------------|---------------|4-----4---4----|3---3---3------|



 Bsus4           Asus4           E               Em
E|-----2----------|---------------|---------------|---------------|
B|----------------|---------------|---------------|---------------|
G|---------------2|---------------|---------------|----------2----|
D|---4-----4---4--|--0---0-2---2-4|--2---2-4---2--|2---2---2-----4|
A|-2-----2---2----|0---0-----0----|---------------|---------------|
E|----------------|---------------|4---4-----4---4|--3---3-----3--|



Bsus4        Asus4      E         Em
Razmices zavese, gledas obecani grad.
Bsus4            Asus4         E      Em
Svetla se pale i tinja zelja u tebi.
    Bsus4          Asus4      E    Em
Jos uvek ti djavoli vire iz rukava,  
Bsus4             Asus4      E    Em
I svaki nokat krije otrov ljubavi.
Ti si sav moj bol,Ti si sav moj bol...
Ispitujes zaborav, obaras alibiI 
biras ulogu kao haljinu za vece.
U prolazu me dotakne miris noci, i kaze
Probudi se, pokreni se, probudi se, pokreni se.
Ti si sav moj bol,Ti si sav moj bol...


chords:
Bsus4: x 2 4 4 5 0
Asus4: x 0 2 2 3 0
E:     0 2 2 1 0 0
Em:    0 2 2 0 0 0

:)
comments
We did not receive enough feedback on this tab! Please rate:
print report bad tab
1 2 3 4 5
I want to post or [tab]
guest
You may want to rate the tab now too:
select rating
Please do not post tabs as comments. Select "correction" instead!