Oops, an error
Loading. Please wait.

The Art Of Bullfighting Tab

603 views 1 this week
no commentswrite comment
1 2 3 4 5
please rate
add to favorites
launch autoscroll
font size
0
reset
how to read this tab
guitar tuner
Autoscroll
slow
fast
+/-
esc
set tempo
stop
Help us to improve Ultimate-Guitar.com Take our survey!
×
Author
-------------------------------------------------------------------------------
                             The Art of Bullfighting - El Creepo
-------------------------------------------------------------------------------
Tabbed by: lulu
Email: waldodog3@hotmail.com

Tuning: Standard

Verse:

e|-----------------------------|--------------------------------------------|
B|-----3----3----1----1----1---|-----8----8----6----6----6------------------|
G|------3----3----3----3-------|------8----8----8----8----------------------|
D|-----------------------------|--------------------------------------------|
A|-----------------------------|--------------------------------------------|
E|---3----3----3----3----3-----|---8----8----8----8----8--------------------|

Chorus:

e|--------------------------------------------------------------------------|
B|--------------------------------------------------------------------------|
G|-----2----2----2----2----2---3----3----3----3----3------------------------|
D|------1----1----1----1--------5----5----5----5--------x3------------------|
A|---0----0----0----0----0---5----5----5----5----5--------------------------|
E|--------------------------------------------------------------------------|

e|--------------------------------------------------------------------------|
B|--------------------------------------------------------------------------|
G|-----2----2----2----2----2---3----3----3---5----5----5--------------------|
D|------1----1----1----1--------5----5--------7----7------------------------|
A|---0----0----0----0----0---5----5----5---0----0----0----------------------|
E|--------------------------------------------------------------------------|
Suggest correction
Give kudos to tab author, rate the tab!
1 2 3 4 5
comments
print report bad tab
guest
You may want to rate the tab now too:
select rating
Please do not post tabs as comments. Select "correction" instead!