Oops, an error
Loading. Please wait.

Escuela De Calor chords

173 views 1 this week
no commentswrite comment
1 2 3 4 5
3 more votes to show rating
add to favorites
×
Save as Personal and add changes to this tab that will be seen only by you. Learn more ›
×
You can save this tab as Personal to edit and correct it or add notes. All changes will be seen only by you. Learn more »
launch autoscroll
font size
0
reset
transpose
0
reset
display chords
guitar tuner
edit
Autoscroll
slow
fast
+/-
esc
set tempo
stop
Strumming
There is no strumming pattern for this song yet. and get +5 IQ
  F#  G# A#
e|--2--4--1--|
B|--2--4--3--|
G|--3--5--3--|
D|--4--6--3--|
A|--4--6--1--|
E|--2--4--1--|

Intro=SOLO
X4
e|-2-1---------------------------|
B|-----4-2-1-----------2-1-------|
G|-----------1-----1-3-----------|
D|---------------4---------------|
A|-------------4-----------------|
E|-------------------------------|

F#               G#
Arde la calle al sol de poniente,
   F#                 G#
hay tribus ocultas cerca del río
F#            G#
esperando que caiga la noche.
F#                G#
Hace falta valor, hace falta valor,
F#                  G#
ven a la escuela de calor.

SOLO X2

F#                   G#
Sé lo que tengo que hacer para conseguir
F#                     G#
que tú estés loco por mí.
F#                   G#
Ven a mi lado y comprueba el tejido mas
F#                   G#
cuida esas manos, chico.
F#               G#
Esa paloma sobrevuela el peligro,
       F#                     G#
aprendió en una escuela de calor.

F#                G#
Hace falta valor, hace falta valor,
F#                  G#
ven a la escuela de calor.

X2
D|-6-6--10-10--13-13--10-10--8-8--12-12-15-15-12-12-|
A|-6-6--10-10--13-13--10-10--8-8--12-12-15-15-12-12-|
E|-4-4--8--8---11-11--8--8---6-6--10-10-13-13-10-10-|

e|-8-8-6-6-4-4-3-3-1-1---------------------------|
B|---------------------4-4-3-3-1-1---------------|
G|---------------------------------3-3-1-1-0-0---|
D|---------------------------------------------3-3-1-1-0-0---|
A|---------------------------------------------------------3-3-1-|

G#                  A#
Vas por ahí sin prestar atención
   G#                     A#
y cae sobre ti una maldición.
G#                A#
En las piscina provadas las chicas
    G#                  A#
desnudan sus cuerpos al sol.
G#                  A#
No des un paso, no des un mal paso,
      G#                  A#
esto es una escuela de calor.

G#                A#
Hace falta valor, hace falta valor,
G#                  A#
ven a la escuela de calor.
G#                   A#
Deja que me acerque,
                        G#
deja que me acerque a ti,
quiero vivir del aire,
A#
quiero salir de aquí.
G#               A#
Arde la calle al sol de poniente,
 G#                 A#
hay tribus ocultas cerca del río
G#              A#
esperando que caiga la noche estoy
G#                 A#
Hace falta valor, hace falta valor,
G#                 A#
Hace falta valor, hace falta valor,
G#                     A#
ven a la escuela de calor, VAMONOS!!

SOLO X4
e|-4-3-1-------------------|
B|-------4-3---------1-4-3-|
G|-----------3---1-3-------|
D|-------------3-----------|
A|-------------------------|
E|-------------------------|
Suggest correction
Creating personal tab
Creating personal tab
You can edit any tab online and save it as your Personal.

You can edit, replace or remove any tab part or add personal notes – all changes will be seen only by you.

Personal tabs can be accessed anytime from any device, even offline.
Learn more »
Give kudos to tab author, rate the tab!
1 2 3 4 5
comments
print report bad tab
guest
Wanna post a correction for this tab? Suggest correction