Oops, an error
Loading. Please wait.

Esperman tab

41 views 1 this week
no commentswrite comment
1 2 3 4 5
3 more votes to show rating
add to favorites
×
Save as Personal and add changes to this tab that will be seen only by you. Learn more ›
×
You can save this tab as Personal to edit and correct it or add notes. All changes will be seen only by you. Learn more »
launch autoscroll
font size
0
reset
how to read this tab
guitar tuner
edit
Autoscroll
slow
fast
+/-
esc
set tempo
stop
Esta cancion esta Drop D (D,A,D,G,B,E)

/ = slide
h = hammer-on

Esta es la historia de un superheroe que solo sabia hacer el mal
y solo queria volar...esta es la historia de un hombre sin...eso
que solo sabia volar y solo queria volar y nunca sabreis quien es...


D#5/C#5           G#5
       Quien es ?     Esperman !

D#5/C#5           G#5
       Quien es ?     Esperman !

D#5/C#5                     G#5
       El cosmos a tus pies     y miles de poderes

D#5/C#5                  G#5
       para poder luchar     contra los superheroes

B5              C#5
Sobrevolando va por toda la ciudad

E-------------------------------------------
B-------------------------------------------
G-------------------------------------------
D-1-1-1---4--3-3--6-6-6---1-1-1---4--3------
A-1-1-1---4--3-3--6-6-6---1-1-1---4--3------
D-1-1-1---4--3-3--6-6-6---1-1-1---4--3------

B5                  C#5
Rompiendo el aire...no haciendo caso a nadie

D#5      C#5            G#5
Yo soy esperman y he nacido en un lugar de ambiente

D#5      C#5        G#5  B5
quiero tener el control....de tu mente !

D#5      C#5         G#5
quiero sentir que no soy el unico indecente

B5               C#5
y te voy a robar la fantasia sexual...

E-------------------------------------------
B-------------------------------------------
G-------------------------------------------
D-1-1-1---4--3-3--6-6-6---1-1-1---4--3------
A-1-1-1---4--3-3--6-6-6---1-1-1---4--3------
D-1-1-1---4--3-3--6-6-6---1-1-1---4--3------

...de la gente !

E-------------------------------------------
B-------------------------------------------
G-------------------------------------------
D-1-1-1---4--3-3--6-6-6---1-1-1---4--3------
A-1-1-1---4--3-3--6-6-6---1-1-1---4--3------
D-1-1-1---4--3-3--6-6-6---1-1-1---4--3------

...de tu mente !


D#5/C#5           G#5
       Quien es ?     Esperman !

D#5/C#5           G#5
       Quien es ?     Esperman !

D#5/C#5                      G#5
       Vas a cerrar el bar ?    No jodas !

D#5/C#5                            G#5
       Que esperman ya esta aqui...   que empieza todo ahora !

B5              C#5
Sobrevolando va por toda la ciudad

E-------------------------------------------
B-------------------------------------------
G-------------------------------------------
D-1-1-1---4--3-3--6-6-6---1-1-1---4--3------
A-1-1-1---4--3-3--6-6-6---1-1-1---4--3------
D-1-1-1---4--3-3--6-6-6---1-1-1---4--3------

B5                  C#5
Rompiendo el aire...no haciendo caso a nadie

D#5      C#5            G#5
Yo soy esperman y he nacido en un lugar de ambiente

D#5      C#5        G#5  B5
quiero tener el control....de tu mente !

D#5      C#5         G#5
quiero sentir que no soy el unico indecente

B5               C#5
y te voy a robar la fantasia sexual...


E---------------------------------------
B---------------------------------------
G---------------------------------------
D-1-------1-1--------------------4------
A-1--4-6--1-1--4-6---------4-4h6--------
D-1-------1-1--------6-7-8--------------

                 Cuidalo !

E---------------------------------------
B---------------------------------------
G---------------------------------------
D-1-------1-1---------------------------
A-1--4-6--1-1--4-6---6-7-5--------------
D-1-------1-1--------------8-7-6--------

Y hace tiempo que he estado esperando este momento

E---------------------------------------
B---------------------------------------
G---------------------------------------
D-1-------1-1--------------------4------
A-1--4-6--1-1--4-6---------4-4h6--------
D-1-------1-1--------6-7-8--------------

Y encontrarme con un heroe que haya cambiado de sexo... si ! si !

E---------------------------------------
B---------------------------------------
G---------------------------------------
D-1-------1-1---------------------------
A-1--4-6--1-1--4-6---6-7-5--------------
D-1-------1-1--------------8-7-6--------

Y he pensado que tu fuerza puede ser esa fuerza que me ayude a ser otro superheroe


B5                                   C#5
Y dime que es lo que tengo que hacer ven aqui solo ven cuentame ! eh !

D#5      C#5            G#5
Yo soy esperman y he nacido en un lugar de ambiente

D#5      C#5        G#5  B5
quiero tener el control....de tu mente !

D#5      C#5         G#5
quiero sentir que no soy el unico indecente

B5                     C#5
y te he vuelto a robar la fantasia sexual...


-Acordes-

B5      C#5     D#5     G#5

E-----  E-----  E-----  E-----
B-----  B-----  B-----  B-----
G--4--  G--6--  G--8--  G-----
D--4--  D--6--  D--8--  D--6--
A--2--  A--4--  A--6--  A--6--
D-----  D-----  D-----  D--6--

-REF-

            
            
Suggest correction
Creating personal tab
Creating personal tab
You can edit any tab online and save it as your Personal.

You can edit, replace or remove any tab part or add personal notes – all changes will be seen only by you.

Personal tabs can be accessed anytime from any device, even offline.
Learn more »
Give kudos to tab author, rate the tab!
1 2 3 4 5
comments
print report bad tab
guest
Wanna post a correction for this tab? Suggest correction