Oops, an error
Loading. Please wait.

No Quiero Nada tab

16 views 1 this week
no commentswrite comment
1 2 3 4 5
3 more votes to show rating
add to favorites
×
Save as Personal and add changes to this tab that will be seen only by you. Learn more ›
×
You can save this tab as Personal to edit and correct it or add notes. All changes will be seen only by you. Learn more »
launch autoscroll
font size
0
reset
how to read this tab
guitar tuner
edit
Autoscroll
slow
fast
+/-
esc
set tempo
stop
Hola os transcribo esta canción ya que me la han pedido exclusivamente.
Creo que son dos guitarras, y el bajo ya aparte, aunque eso ya se lo dejo a un bajista.

?/? = arrastrar

Intro:
Guitarra 1:
D: -------------------------------------------------------
A: -6-6-6---6-6/8-8-8---8-8/9-9-9-9-9/11-11-11-11/16-16-16
E: -------------------------------------------------------

D: -------------------| 
A: --16-16-16-16-16-16|
E: -------------------|

Guitarra 2:
           G: -10---------------------------13|
      
      Na na       na na       na na      na na        na 
Guitarra 1:
D: -------------------------------------------------------
A: -6-6-6---6-6/8-8-8---8-8/9-9-9-9-9/11-11-11-11/16-16-16
E: -------------------------------------------------------
    na
D: -------------------| 
A: --16-16-16-16-16-16|
E: -------------------|

Guitarra 2:
             G:---13----11---10----11---13----13|

    Na na         na na      na na       na na       na 
Guitarra 1:
D: -------------------------------------------------------
A: -6-6-6---6-6/8-8-8---8-8/9-9-9-9-9/11-11-11-11/16-16-16
E: -------------------------------------------------------
       na
D: -------------------| 
A: --16-16-16-16-16-16|
E: -------------------|

Guitarra2:
B:-----6-5-------------------6-6-------|            
G:-------------------6---------------6-|

Guitarra 1:
D: -------------------------------------------------------
A: -6-6-6---6-6/8-8-8---8-8/9-9-9-9-9/11-11-11-11/16-16-16
E: -------------------------------------------------------

D: -------------------| 
A: --16-16-16-16-16-16|
E: -------------------|

(Esta guitarra 1 va con el párrafo siguiente)

No te quiero ver más
Te dicho que  me dejes en paz
Que no quedo contigo esta tarde.

Guitarra 2:                           
B:----------5(bentz)--------5-5-----|
G:--6-5-6--------------6-5--------6-|
      

Guitarra 1:
D: -------------------------------------------------------
A: -6-6-6---6-6/8-8-8---8-8/9-9-9-9-9/11-11-11-11/16-16-16
E: -------------------------------------------------------

D: -------------------| 
A: --16-16-16-16-16-16|
E: -------------------|

(Esta guitarra 1 va con el párrafo siguiente)


Que te largues ya
Que no quiero más que te vayas al cine
Que no vuelvas jamás a llamarme

Guitarra 2:        
B:-------------5-5------------|
G:--2/6-5-6-------------6-----|

Guitarra1:

D:-6-----8------9-----11-|
  Na na  na na  na na na  

D:-6-----8------9-----11-|
  Na na  na na  na na na

D:-6-----8------9-----11-|
  Na na  na na  na na na

Guitarra2:
C#
Si me doy la vuelta 
             F#
Y miro  para atrás
C#                 F#
Si te digo esto te parece mal
C#
Si me doy el piro. 
                       G#
No te quiero ver más

C#
Si me voy corriendo
               F#
Y miro para atrás
C#
Me sigues el aire 
                   F#
que quieres aspirar
C#                                G#
Todo lo que hago a ti te sienta mal

C#                        F#
Eres esa persona que no quiero ya
C#                        F#
Eres esa historia que quiero olvidar
C#                    F#
Eres un estorbo.
          G#
Vete ya.

Na na   na na   na na   na na na na
Guitarra1:
D:--------------7/14(bentz)----12-11-14-11-11-11-11/7---|

Na na   na na   na na   na na na na
Guitarra1:
D:----------------------14-14(bentz)---12-11-14-1111-11-|

Guitarra 1:
D: -------------------------------------------------------
A: -6-6-6---6-6/8-8-8---8-8/9-9-9-9-9/11-11-11-11/16-16-16
E: -------------------------------------------------------

D: -------------------| 
A: --16-16-16-16-16-16|
E: -------------------|

(Esta guitarra 1 va con el párrafo siguiente)

Y creo que es normal lo que te he dicho ya
Que tu cara espanta que te compres un mono y le cantes.

Guitarra2:
D:----9-11-12-14-14-12-11-14-14-11-|

Guitarra 1:
D: -------------------------------------------------------
A: -6-6-6---6-6/8-8-8---8-8/9-9-9-9-9/11-11-11-11/16-16-16
E: -------------------------------------------------------

D: -------------------| 
A: --16-16-16-16-16-16|
E: -------------------|

(Esta guitarra 1 va con el párrafo siguiente)

No me mires mal 
que me das igual
Intenta pillar lo que dicen
hoy estas frases 

Guitarra2:
D: --14-14(bentz)(y aguantándolo)/12-11(aún con bentz)-

D: --14-12/11-11---|

Guitarra1:

D:-6-----8------9-----11-|
  Na na  na na  na na na  

D:-6-----8------9-----11-|
  Na na  na na  na na na

D:-6-----8------9-----11-|
  Na na  na na  na na na

C#
Si me doy la vuelta 
             F#
Y miro  para atrás
C#                 F#
Si te digo esto te parece mal
C#
Si me doy el piro. 
                       G#
No te quiero ver más

C#
Si me voy corriendo
               F#
Y miro para atrás
C#
Me sigues el aire 
                   F#
que quieres aspirar
C#                                G#
Todo lo que hago a ti te sienta mal

C#                            F#
Eres la persona que no quiero ya
C#                        F#
Eres esa historia que quiero olvidar
C#                    F#
Eres un estorbo.
          G#
Vete ya.

Sólo:    C#  E(con cejilla7º traste)
         C#  E(con cejilla7º traste) 
         C#  E(con cejilla7º traste) 
         G#

C#                    F#
Eres lo peor que me pudo pasar
C#                     F#
Eres esa piedra para tropezar
C#                         F#         G# 
Eres un examen retrasado mental.

C#                        F#
Treinta mil colonias te podrás echar
C#                F# 
Pero para mi olerás fatal 
C#                    F#         G#
Ni tres mil vestido te podrán tapar.

     Na na         na na     na na        na 

Guitarra 1:
D: ---------------------------------------------------| 
A: -6-6-6---6-6/8-8-8---8-8/9-9-9-9-9/11-11-11-11-----|
E: ---------------------------------------------------| 

     Na na       na na       na na       na 

Guitarra 1:
D: ---------------------------------------------------| 
A: -6-6-6---6-6/8-8-8---8-8/9-9-9-9-9/11-11-11-11-----|
E: ---------------------------------------------------| 

     Na na      na na       na na     na na      na na

Guitarra 1:
D: -----------------------------------------------------|
A: -6-6-6---6-6/8-8-8---8-8/9-9-9-9-9/11---9---8---9---8|
E: -----------------------------------------------------|

C#:   -4    F# -2     G#  -4      E -7 (Como caso especial)
      -6       -2         -4        -9
      -6       -3         -5        -9
      -6       -4         -6        -9
      -4       -4         -6        -7
      -4       -2         -4        -7

Más o menos creo que es algo así.

Dudas o sugerencias a mi e-mail. Esta canción va pa? D. J. Santana.

            
            
Suggest correction
Creating personal tab
Creating personal tab
You can edit any tab online and save it as your Personal.

You can edit, replace or remove any tab part or add personal notes – all changes will be seen only by you.

Personal tabs can be accessed anytime from any device, even offline.
Learn more »
Give kudos to tab author, rate the tab!
1 2 3 4 5
comments
print report bad tab
guest
Wanna post a correction for this tab? Suggest correction