Oops, an error
Loading. Please wait.

No Voy A Parar tab

28 views 1 this week
no commentswrite comment
1 2 3 4 5
3 more votes to show rating
add to favorites
×
Save as Personal and add changes to this tab that will be seen only by you. Learn more ›
×
You can save this tab as Personal to edit and correct it or add notes. All changes will be seen only by you. Learn more »
launch autoscroll
font size
0
reset
how to read this tab
guitar tuner
edit
Autoscroll
slow
fast
+/-
esc
set tempo
stop
------------------------------------------
 El CaNTo DeL LoCoOoO-o > No VoY a PaRaR
------------------------------------------

 Bueeeeeeeee, soy Manu, encantado, me aburría en esta tarde de verano y me ha dado x sacar
esta canción del canto.. no le digáis a nadie q la he sacado yo vale? q me da no se q.
La canción la verdad q es bastante simple en cuanto a estructura, y ni siquiera el solo de
guitarra llega a hacerse complicado (suena más de lo q parece). Os aconsejo q lo saquéis,
suena to wapo con eléctrica, lo típico sabéis? tu hermana te grita 'hey Manu eso mola!'
Pues eso. Suerte..

 Antes de empezar, q sepáis q en esta canción el grupo afina las guitarras y el bajo medio
tono más abajo (medio tono más grave, en Eb). Ya se q es un coñazo, decidmelo a mí. De hecho,
había empezado a hacer la tablatura para afinación standard, pero sería injusto, ya que el solo
de guitarra sería bastante más complejo, sin poder utilizar cuerdas al aire. Os lo pongo tal y
como la tocan, pues...

 Explicación breve: / = Slide (deslice)
                    p = pull off (desde un traste, arrastrar la cuerda para q suene al soltar)
                    PM = Palm Muted, apagado de cuerdas con la mano derecha

 Los acordes q se utilizan se pueden tocar así:

  Emaj7   Dmaj7    Bm7      Bm7      E7      G7      G7
e|--7--   --5--   --7--    --2--   --0--   --3--   --1--
B|--9--   --7--   --7--    --3--   --3--   --3--   --0--
G|--8--   --6--   --7-- ó  --2--   --1--   --4-- ó --0--
D|--9--   --7--   --7--    --4--   --2--   --3--   --0--
A|--7--   --5--   --9--    --2--   --2--   --5--   --2--
E|-----   -----   --7--    -----   --0--   --3--   --3--

 Concretamente, creo q el primer Bm7 lo hace con tónica en 6ª cuerda (la primera forma, en el
traste 7) y el segundo lo hace en 5ª cuerda... pero bueno, pijadas no?

----------------------------------------------------------

                        3 partes:
----------------------------------------------------------

 A) Verso

 | Emaj7 | Dmaj7 | Emaj7 | Dmaj7 | Bm7 en 6º | E7 | Bm7 en 5º | G7 | Bm7 | E7 | % | % |

    y como soy majo, os lo mastico más aun y os pongo la letra y todo para los que no
entienden bien que lo de la música y todo ese rollo va por compases (buen rollo va):

 Emaj7          Dmaj7
     Hoy vuelvo,    vuelvo a lograr,

 Emaj7            Dmaj7                 Bm7
     que mi tiempo     tenga un gran lugar..

 Bm7               E7         Bm7              G7
   ..y seguiré creciendo más,    y seguiré tus pasos yo

 Bm7                   E7         E7
     lo que hayamos pasado forma parte de mi cuerpo y mi interior.


 B) Estribillo (ya con distorsión)

e|--------------------------------------------------------------------------------------
B|--------------------------------------------------------------------------------------
G|----------------------------------------------------------2----------------------1----
D|--7/5--5-5--5/7--7-7--7--------7/5--5-5--5/7--7-7--7------3----------------------2---- [x3]
A|--7/5--5-5--5/7--7-7--7--------7/5--5-5--5/7--7-7--7------3----------------------2----
E|--5/3--3-3--3/5--5-5--5--------5/3--3-3--3/5--5-5--5------1----------------------0----
                   No quiero...                 No voy a parar.. quiero ver q hay ganas..


 C) Solo, Parte Tercera, o Parte en la que David exprime su Gibson SR ¬¬

e|-----------------------------------------------------------------------------------------
B|-----------------------------------------------------------------------------------------
G|-----------------------------------------------------------------------------------------
D|-----------------------------------------------------------------------------------------
A|-x-x---5p0--0--7p0--0--8p0--0--7p0--5p0--7p0--5p0--0--7p0--0--8p0--0--7p0--0--5p0--7p0---
E|-x-x-------------------------------------------------------------------------------------

e|---------------------------------------------------------------------------
B|---------------------------------------------------------------------------
G|---------------------------------------------------------------------------
D|---------------------------------------------------------------------------
A|--5p0--0--7p0--0--8p0--0--7p0--5p0--7p0---5-5-5-5-8-8-8-8------------------
E|----------------------------------------------------------3-3-3-3-6-6-6-6--
                                           <_________________________________>

   La primera vez termina como se indica   ----------------------------------
 arriba. La segunda vez termina como pone  ----------------------------------
 aquí al lado. Son sólo un par de quintas, ----------------------------------
 y va a ser q lo apaga (palm muted).       ----------------------------------
                                           --5--5--5--5--5/8--8--8\----------
                                           --3--3--3--3--3/6--6--6\----------


 La estructura de la canción es:

    - Verso
    - Estribillo (Riff x3)
    - Verso
    - Estribillo (Riff x3)
    - Solo bajo (guitarra mantiene D) y puente de vocalista (q te parece si te digo...)
    - Solo guitarra, repitiéndose despues con voz.


    Para cualquier duda... ya sabéis, hamlet_to_fakie@ aunque aviso de q mi
 paciencia suele salir los sábados de marcha. Para sugerencias tal y cual, lo mismo..
 aunque creo q si algo pudiera estar mal sería alguno de los últimos acordes del verso.
 De todas formas miradlo.. yo creo q suena bastante igual. aaaaaaaaaaaaaaadios :)

            
            
Suggest correction
Creating personal tab
Creating personal tab
You can edit any tab online and save it as your Personal.

You can edit, replace or remove any tab part or add personal notes – all changes will be seen only by you.

Personal tabs can be accessed anytime from any device, even offline.
Learn more »
Give kudos to tab author, rate the tab!
1 2 3 4 5
comments
print report bad tab
guest
Wanna post a correction for this tab? Suggest correction