Oops, an error
Loading. Please wait.

Sintonia De 7 Vidas tab

38 views 1 this week
no commentswrite comment
1 2 3 4 5
3 more votes to show rating
add to favorites
×
Save as Personal and add changes to this tab that will be seen only by you. Learn more ›
×
You can save this tab as Personal to edit and correct it or add notes. All changes will be seen only by you. Learn more »
launch autoscroll
font size
0
reset
how to read this tab
guitar tuner
edit
Autoscroll
slow
fast
+/-
esc
set tempo
stop
Bueno esta es la sintonía de 7 vidas interpretadas por ECDL
espero que les guste yo creo que no esta mal  duda
este es mi correo:dancab92@


intro
e|------------------------------------|
b|------------------------------------| sto se repite
g|------------------------------------| 4 veces en el
d|------------------------------------| intro
a|-------------------------4--4-------|
E|--2--2--2-2--2--2--4--6--------6--4-|

FA#               SI                        DO#
Quién podría imaginar que volvería de este viaje
SI                     DO#                      FA#
será porque echaba de menos tanto tiempo sin hablarte

intro
e|------------------------------------|
b|------------------------------------|
g|------------------------------------|  X2
d|------------------------------------|
a|-------------------------4--4-------|
E|--2--2--2-2--2--2--4--6--------6--4-|

FA#                 SI               DO#
Si me das lo que perdí te daré lo me pidas
SI                      DO#
que soy la llave de tu puerta
           FA#  DO#
y tengo 7 vidas
           FA#  DO#
y tengo 7 vidas
           FA#  DO#
y tengo 7 vidas
           SI   FA#
y tengo 7 vidas


intro
e|------------------------------------|
b|------------------------------------|
g|------------------------------------|  X2
d|------------------------------------|
a|-------------------------4--4-------|
E|--2--2--2-2--2--2--4--6--------6--4-|

 espero que les haya gustado por daniser

            
            
Suggest correction
Creating personal tab
Creating personal tab
You can edit any tab online and save it as your Personal.

You can edit, replace or remove any tab part or add personal notes – all changes will be seen only by you.

Personal tabs can be accessed anytime from any device, even offline.
Learn more »
Give kudos to tab author, rate the tab!
1 2 3 4 5
comments
print report bad tab
guest
Wanna post a correction for this tab? Suggest correction