Oops, an error
Loading. Please wait.

Y Si Pudiera Tenerte tab

version 1
version 1

Whole song

28 views 1 this week
no commentswrite comment
1 2 3 4 5
3 more votes to show rating
add to favorites
×
Save as Personal and add changes to this tab that will be seen only by you. Learn more ›
×
You can save this tab as Personal to edit and correct it or add notes. All changes will be seen only by you. Learn more »
launch autoscroll
font size
0
reset
how to read this tab
guitar tuner
edit
Autoscroll
slow
fast
+/-
esc
set tempo
stop
Intro:

--
 E |---------------------|---------------------|-------------|---------|
 B |----------0-1--1/3---|--3/6-6-6--6/8--6-5--|-------------|---------|
 G |--0-0-0-2------------|---------------------|--5----------|----2-0--|
 D |---------------------|---------------------|----5-3-2-0--|--0------|
 A |---------------------|---------------------|-------------|---------|
 E |---------------------|---------------------|-------------|---------|
--/


|------------------|-------------|
|------------------|-------------|
|--------2-3--3/5--|-------------|
|--3-3-3-----------|--5-3-2-0-0--|
|------------------|-------------|
|------------------|-------------|


SOL           MIm        FA
Tienes la cara más bonita
                   DO
que yo haya visto jamás
SOL           MIm        FA
tienes esa maldita fuerza
                        DO
que me ha enganchado y no me va a soltar


tu olor me inspira
tu voz me incita
a que mi risa nazca sin pensar

a que mi estómago este cerrado
                                 DO     SOL
y me hago daño porque sé que no estás
FA     DO             SOL
aaaaaaaaah sé que no estás...

(Estribillo)
        SOL
y si pudiera tenerte y quererte a la vez
         MIm
y si estuviera tu amor no lloraría por ver
         DO
que no te tengo y me pierdo y
         SOL
te quiero tener

y si estuviera a tu lado
moría por ser
ese que cuida de tí
ese que sueña con ser
tu amor eterno
ese trozo que quiero tener
FA    DO              SOL
aaaaaaah te quiero tener...


SOL               MIm        FA
Es cada gesto una obra maestra
                    DO
que tu regalas sin saber por qué
que lo que nace y que tienes dentro
es todo arte que haces sin querer

mirar tu cara, es mirar un sueño
que está a mi alcance y no puedo tener
que no me quieras me duele y siento
que me hago daño por quererte tener
FA    DO                SOL
aaaaaaaah te quiero tener...

(Estribillo)

SPLOKE

            
            
Suggest correction
Creating personal tab
Creating personal tab
You can edit any tab online and save it as your Personal.

You can edit, replace or remove any tab part or add personal notes – all changes will be seen only by you.

Personal tabs can be accessed anytime from any device, even offline.
Learn more »
Give kudos to tab author, rate the tab!
1 2 3 4 5
comments
print report bad tab
guest
Wanna post a correction for this tab? Suggest correction