Oops, an error
Loading. Please wait.

La Pelotona chords

version 2
version 2

Whole song

121 views 1 this week
no commentswrite comment
1 2 3 4 5
3 more votes to show rating
add to favorites
×
Save as Personal and add changes to this tab that will be seen only by you. Learn more ›
×
You can save this tab as Personal to edit and correct it or add notes. All changes will be seen only by you. Learn more »
launch autoscroll
font size
0
reset
transpose
0
reset
simplify chords
display chords
guitar tuner
edit
Autoscroll
slow
fast
+/-
esc
set tempo
stop
Strumming
There is no strumming pattern for this song yet. and get +5 IQ
Intro:

--------------------------------------
--------0----------------0-------1-0--
------4---------0-----2-------2------- Se repite 2 veces
--4/5-----5---2---2/4-------1---------
------------3-------------2-----------
--------------------------------------

Em                       C
Viajo en silencio y no expreso sentimientos
Am                     B7
Pero tu bien sabes que te llevo aquí adentro
Em                            C
cuando llega la noche y es la hora de partir
Am                       B7
volviendo tu silueta alejándose de mi
Em                       C
un profundo sentimiento se apodera de mi cuerpo
Am                     B7
y es que si no estoy contigo es como si estuviera muerto
Em                       C
tristezas se apoderan de mi mente y de mi alma
Am                     B7
porque sólo a tu lado puedo conocer la calma
Em                       C
se tiene mucho el tiempo que no estas tu conmigo
Am                     B7
pero me parece eterno y me pierdo en el olvido
Em                       C
el viento me acaricia y me recuerda a tus manos
Am                     B7
la brisa de la noche me hace pensar en tus labios
Em                       C
el brillo de la luna es igual al de tus ojos,
Am                     B7
sabes que sin ti tan sólo soy un despojo
Em                       C
y aqui sobres mi cama el aroma de tu cuerpo
Am                     B7
que me mantiene vivo y me leva al firmamento


PRECORO:
Em                       C
eres lo mejor que en mi vida ha pasado
Am                     B7
te juro pierdo el rumbo cuando no estás a mi lado
Em                       C
el viento me repite, tu nombre a cada instante
Am                     B7
la brisa de la noche me recuerda lo distante


CORO:


que se encuentran tus labios             y yo sigo aquí


------0---0---0------------------
------0---0---0---------1-0-1----
------0---0---0-------2-------2--   Se repite 4 veces
----2---2---2---2---1------------
--2---------------2--------------
---------------------------------
  o u o u o u o u ooh

Em                       C
cuando estoy contigo cada día es alegría
Am                     B7
pero lejos de ti me sumerjo en la agonía
Em                       C
del recuerdo de tus besos y el sabor de tu saliva
Am                     B7
despierto en las madrugadas y abrazo una pinche almohada,
Em                       C
deseando fueras tu la que comparte mi cama
Am                     B7
te juro que estremezco cuando no estás tu conmigo
Em                       C
quisiera mandarle al tiempo poder hacer eternos
Am                     B7
todos los momentos en que me levas al cielo
Em                       C
mi vida es codiciada,  muchos quieren mi cabeza
Am                     B7
la verdad no me preocupa si la muerte se atraviesa

Em                       C
con tal de estar contigo juro resucitaría
Am                     B7
para estar a tu lado lo que te resta de vida


PRECORO:
Em                       C
eres lo mejor que en mi vida ha pasado
Am                     B7
te juro pierdo el rumbo cuando no estás a mi lado
Em                       C
el viento me repite, tu nombre a cada instante
Am                     B7
la brisa de la noche me recuerda lo distante


CORO:

que se encuentran tus labios             y yo sigo aquí


------0---0---0------------------
------0---0---0---------1-0-1----
------0---0---0-------2-------2--   Se repite 2 veces
----2---2---2---2---1------------   (sin voz)
--2---------------2--------------
---------------------------------


------0---0---0------------------
------0---0---0---------1-0-1----
------0---0---0-------2-------2--   Se repite 3 veces
----2---2---2---2---1------------
--2---------------2--------------
---------------------------------
  o u o u o u o u ooh


------0---0---0------------------
------0---0---0---------1-0-1----
------0---0---0-------2-------3--   En la 4 cambia la última nota
----2---2---2---2---1------------
--2---------------2--------------
---------------------------------
  o u o u o u o u ooh

            
            
Suggest correction
Creating personal tab
Creating personal tab
You can edit any tab online and save it as your Personal.

You can edit, replace or remove any tab part or add personal notes – all changes will be seen only by you.

Personal tabs can be accessed anytime from any device, even offline.
Learn more »
Give kudos to tab author, rate the tab!
1 2 3 4 5
comments
print report bad tab
guest
Wanna post a correction for this tab? Suggest correction