Oops, an error
Loading. Please wait.

Sabor A Mi Tab

28,299 views 45 this week
no commentswrite comment
1 2 3 4 5
x 7
add to favorites
launch autoscroll
font size
0
reset
how to read this tab
guitar tuner
×
Best way to learn
"Sabor A Mi"
Autoscroll
slow
fast
+/-
esc
set tempo
stop
Author
[Verse 1]
e|-2--3---5----3--2--0---2------2-2-2-----------------0---2---3--2--0p20-------------|
B|--------4-----------------0---0------------------3------3---------------3----------|
G|--------5-----------------0---0------------------0------0--------------------------|
D|--------------------------------------2---------------------0----------------------|
A|-----------------------------------------------------------------------------------|
E|-----------------------0------0----------0--2--3--------3---------3----------------|

e|-0--2-----0-0--0--3-3---------------0--------------------------------------00------|
B|----3-----3-------3-3-----2--2--3------3--2--0-----3-3-----0-2-3-2-0-------22------|
G|-------2------------------2-----2------2-----0-----0-0---------------2-----22------|
D|-0-------------2-------------------------------------------------------------------|
A|---------------------------------------------------------2---------------0---------|
E|-----------------------2------------1-----------0--------------0-------------------|

e|----2-2-2---------22------3-----3----2---------------------------------------------|
B|---------------3--33------5-----5----3---------------------------------------------|
G|-----------2------22------3-----3----2---------------------------------------------|
D|---------------0---------------------0---------------------------------------------|
A|-0------0---------------3-----3----------------------------------------------------|
E|-----------------------------------------------------------------------------------|

[Verse 2]
e|-2--3---5----3--2--0---2------2-2-2-----------------0---2---3--2--0p20-------------|
B|--------4-----------------0---0------------------3------3---------------3----------|
G|--------5-----------------0---0------------------0------0--------------------------|
D|--------------------------------------2---------------------0----------------------|
A|-----------------------------------------------------------------------------------|
E|-----------------------0------0----------0--2--3--------3---------3----------------|

e|-0--2-----0-0--0--3-3---------------0--------------------------------------00------|
B|----3-----3-------3-3-----2--2--3------3--2--0-----3-3-----0-2-3-2-0-------22------|
G|-------2------------------2-----2------2-----0-----0-0---------------2-----22------|
D|-0-------------2-------------------------------------------------------------------|
A|---------------------------------------------------------2---------------0---------|
E|-----------------------2------------1-----------0--------------0-------------------|

e|----2-2-2---------22------3-----3------222222--------------------------------------|
B|---------------3--33------5-----5------333333--------------------------------------|
G|-----------2------22------3-----3------222222--------------------------------------|
D|---------------0---------------------0---------------------------------------------|
A|-0------0---------------3-----3----------------------------------------------------|
E|-----------------------------------------------------------------------------------|

(middle part)
e|-------33---2222---33---22---0---2---0---2-----00---0--------00---0---------22----2-|
B|-5-5-5-55---5--5-5-55---3-3----3--3----3--3----33---3--0-2-3-33---3--0-2-3--33----3-|
G|-------55---5--5---55---2------0-------2-------00---0--------11---1---------11----1-|
D|-----0-----------0--------------------------------0---------------------------------|
A|----------0-----------0--------------0--------------------------2---------------2---|
E|-----------------------------3---------------3---------3-2-0---------0---0----------|

e|------0-2-0-2-3-2-3-2--0------------------------------------------------------------|
B|-2-3--2---1---0--------2------------------------------------------------------------|
G|------2---2---0--------2------------------------------------------------------------|
D|------------------0----2------------------------------------------------------------|
A|------0----------------0------------------------------------------------------------|
E|-0------------3---------------------------------------------------------------------|


************************************

| p  Pull-off

************************************
Suggest correction
comments
print report bad tab
guest
You may want to rate the tab now too:
select rating
Wanna post a correction for this tab? Suggest correction