Oops, an error
Loading. Please wait.

La Guerra De Gardel tab

80 views 1 this week
no commentswrite comment
1 2 3 4 5
3 more votes to show rating
add to favorites
×
Save as Personal and add changes to this tab that will be seen only by you. Learn more ›
×
You can save this tab as Personal to edit and correct it or add notes. All changes will be seen only by you. Learn more »
launch autoscroll
font size
0
reset
how to read this tab
guitar tuner
edit
Autoscroll
slow
fast
+/-
esc
set tempo
stop
  [INTRO]

Dm                                         _
 Tanto que jodieron con Gardel,             |
                               Gm           |
si nació en Francia o Tacuarembó;           |  Estructura
                                        Bb  |      1
que entre Argentina y Uruguay ya van a ver  |
A7                            Dm - A7       |
 la terrible guerra que se armó.           _/

D                                          _
 Empezaron por dinamitar y volar,           |
Bm                                          |
 todos los puentes sobre el río Uruguay.    |
G                                           |
 Y eso de volar puentes lo tomaron en serio |
A                                           |  Estructura
 dinamitaron hasta el puente aéreo.         |      2
                                            |
        D                                   |
Y Argentina invadió la isla Martín García,  |
Bm                                          |
  Uruguay invadió las Malvinas.             |
        G                                   |
Los ingleses se cagaban de risa             |
A                                  D        |
 y hasta la reina esbozó una sonrisa.      _/

         Gm                      Dm                     _
Y en la radio ya se estaba comentando                    |
                         E7                   A7 [riff1] | Estructura
que Los Beatles eran de Pando;Sinatra de Tucumán         |     3
Gm                      Dm                               |
 Mientras seguía esta macana,                            |
                      E7          A7         Dm  A7      |
derramando sangre hermana por un tango nada más.        _/

  [INTRO]
                                             _
En Uruguay un decreto prohibió                |
llevar por nombre Evita o Diego.              | Estructura
y en Argentina nadie se podía llamar          |     1
Obdulio, Enzo, Paco o Johnatan               _/
                                             _
Los yoruguas gritaban "olelé olalá"           |
"San Martín se la come, Artigas se la da".    |
Y la rubias de New York cantaban "¡Gardel!    |
date una vuelta por la YMCA".                 | Estructura
                                              |     2
En Uruguay fusilaban frente a un pelotón      |
a los que hablaban de "boludo" y "chabón".    |
Y en Argentina si usabas mate y termo seguido |
de seguro eras un desaparecido.              _/
                                             _
Y hasta al Papa le tiraron con el fardo       |
rezó una misa en lunfardo                     |
y bailó tango con la cruz.                    | Estructura
Hasta que un libro de dudosa procedencia      |     3
les hizo tomar conciencia                     |
cuando su historia salió a luz.              _/

  [INTRO]

Dm               Bb                 A7                       Dm
 Y ese libro contaba mentiras infundadas que nunca nadie probó.
                 Gm                    F
Que solo lo conocían como el zorzal criollo
                   E7                      A7
Y en cambio Julio Sosa del tango era "el varón"
                    Dm                   Gm
también se le inventaba que se daba la biaba
                  A7                  Dm
y justo fue a quedarla allá por Medellín.
                                       _
Y fue tanta la vergüenza que sintieron  |
que no lo resistieron                   |
ser compatriotas de un traidor,         |  Estructura
Y decidieron dándose la mano            |      3
que Carlitos era peruano                |
somos hermanos ...                     _/
        Riff 3
de corazón

--------------------------------------------------------------------
                        Leyenda:  ^ Ligar
                                  / Arrastrar
                                  ~ Hacer vibrar
--------------------------------------------------------------------

INTRO:
                     Dm             A7                Dm          A7
E|---------------------|--|-----------------------------------------||
B|--------10-8---------|--|-----------------10-8--------------------||
G|---7^9-------10^9-~7-|x3|-10-9^7/6----7^9------10^9-7--9^10^9-7-6-||
D|-7-------------------|--|----------7------------------------------||
A|---------------------|--|-----------------------------------------||
E|---------------------|--|-----------------------------------------||

  (esto le contesta el piano a la guitarra en la INTRO)
E|-------------------|----|-----------------------------------||
B|--------------8-10-|----|--------------------10-8-----------||
G|-7-6-7-9-10-9------|-x2-|-7-6-7-9-10-9-7-6--------10-9-7-6--||
D|-------------------|----|----------------------------------7||
A|-------------------|----|-----------------------------------||
E|-------------------|----|-----------------------------------||

       A7
E|-5-5-5-----------------------------6---||
B|-------8-6-5-------------------5-6---8-||
G|-------------7-6-----------5-7---------|| Riff 1
D|-----------------8-7-5-7-8-------------||
A|---------------------------------------||
E|---------------------------------------||

     Dm             A7                   Dm A7 Dm
E|-----------------------------------------------||
B|----------------8-10----------10-8-------------||
G|---7-6-7-9-10-9-----------7^9------10^9-7--6-7-|| Riff 3
D|-7----------------------7----------------------||
A|-----------------------------------------------||
E|-----------------------------------------------||

Nota:
 Me faltó un punteo cuando dice "Julio Sosa" que probé pero no
 queda parecido, al igual que en la parte que pasa a Re mayor
 el bajo va a haciendo varios arreglos.
 Igual, creo que está bastante fiel.
 Cualquier duda ---> gato_bianchi@

            
            
Suggest correction
Creating personal tab
Creating personal tab
You can edit any tab online and save it as your Personal.

You can edit, replace or remove any tab part or add personal notes – all changes will be seen only by you.

Personal tabs can be accessed anytime from any device, even offline.
Learn more »
Give kudos to tab author, rate the tab!
1 2 3 4 5
comments
print report bad tab
guest
Wanna post a correction for this tab? Suggest correction