Oops, an error
Loading. Please wait.

Me Hace Bien, Me Hace Mal chords

version 2
version 2

Whole song

98 views 1 this week
no commentswrite comment
1 2 3 4 5
3 more votes to show rating
add to favorites
×
Save as Personal and add changes to this tab that will be seen only by you. Learn more ›
×
You can save this tab as Personal to edit and correct it or add notes. All changes will be seen only by you. Learn more »
launch autoscroll
font size
0
reset
transpose
0
reset
simplify chords
display chords
guitar tuner
edit
Autoscroll
slow
fast
+/-
esc
set tempo
stop
Strumming
There is no strumming pattern for this song yet. and get +5 IQ
E                C#m    B7        E
Todo lo que gusta es pecado o hace mal
E                C#m    B7        E
Todo lo que me gusta es muy caro o ilegal
 A                            E          E9-7
Me mete en problemas que no tienen solucion
F#                           B7
Se me vuelve complicado o trae una complicacion

C#m             Amaj7/C      F#
Entonces no se nunca lo que tengo que hacer
C#m          Amaj7/C         F#
Me pregunto y no me puedo responder

    A              B7
Porque si me hace bien
    A              B7
Porque si me hace bien
         E
Me hace mal

E                C#m    B7        E
Todo lo que me da placer es raro o inmoral
E                C#m    B7        E
Todo lo que me da placer no se puede contar
 A                            E          E9-7
Y ando haciendo cosas que no puedo impedir
F#                           B7
Y a veces al despertarme me tuve que arrepentir

C                            E
Porque lo prohibido para mi es mejor
C                       B7
Pero despues me hace sentir peor

    E          C#m          B7        E
Y como veo que ya es tarde para decidir
     E        C#m              B7           E
Me tomo el ultimo trago y me acuesto a dormir
me tomo el ultimo trago y me acuesto a dormir

Riff

-------------------------------------------------
-------------------------------------------------
-------------------------------------------------
-999999999------------------------------------------------
-777------------------------------------------------
----999777---------------------------------------------

Los acordes dificiles son:

Amaj7/C
-------------------------------------------------
-2------------------------------------------------
-1------------------------------------------------
-2------------------------------------------------
-3------------------------------------------------
-------------------------------------------------
(Si se fijan es LaMayor Séptima con bajo de Do)

E9-7
-2------------------------------------------------
-3------------------------------------------------
-1------------------------------------------------
-------------------------------------------------
-2------------------------------------------------
-------------------------------------------------

C  D  E  F  G   A  B
C D E F G A B

(Saquen bien la melodia y va a quedar muy groxo, esta perfecto)


Hermosisimo tema del cuarteto.

dudas, consultas: joanemmanuel@

            
            
Suggest correction
Creating personal tab
Creating personal tab
You can edit any tab online and save it as your Personal.

You can edit, replace or remove any tab part or add personal notes – all changes will be seen only by you.

Personal tabs can be accessed anytime from any device, even offline.
Learn more »
Give kudos to tab author, rate the tab!
1 2 3 4 5
comments
print report bad tab
guest
Wanna post a correction for this tab? Suggest correction