Oops, an error
Loading. Please wait.

Solo Un Rumor tab

82 views 3 this week
no commentswrite comment
1 2 3 4 5
3 more votes to show rating
add to favorites
×
Save as Personal and add changes to this tab that will be seen only by you. Learn more ›
×
You can save this tab as Personal to edit and correct it or add notes. All changes will be seen only by you. Learn more »
launch autoscroll
font size
0
reset
how to read this tab
guitar tuner
edit
Autoscroll
slow
fast
+/-
esc
set tempo
stop
Bue aca dejo la intro q no la ncontre en ningun lado
y eso me quemo la kabeza, tonce la saque i la dejo pa
la gente q la anda buscando x ai

                A
|---------------0----0-----|--------------------------
|------0--2-----2----2-----|-----2-0------2-0---------
|-1s2--------2--2----2-----|-1s2------1s2-------------
|---------------2----2-----|--------------------------
|---------------0----0-----|--------------------------
|--------------------------|--------------------------
                                         D
|----------------------------------------2----2----2--
|------3s5--5-5--5---5--2-2--------2--5--3----3----3--
|-1s2--4s6----4-----4---2----2--4--------2----2----2--
|----------------------------------------0----0----0--
|-----------------------------------------------------
|-----------------------------------------------------
        E          A
|-2--5--4---5--7---5----------------------------------
|-------5---5------5----------------------------------
|-------4---4------6----------------------------------
|------------------7-------2--------------------------
|------------------7---2s4----4-2-0--------0---0------
|--------------------------------------0-2---2--------

El acorde E es este aca:
                        |---4---
                        |---5---
                        |---4---
                        |---6---* en el tema estas dos
                        |---7---* notas no se tocan
                        |-------

Ahi ta..esa es la intro, los acordes los van a encontrar por ai
tan en todos lados... Pa sakarla bien se recomienda escuchar el
tema y ir sacandolo de a poco y agregandole algun detalle.. eso
queda en cada uno..esto es lo q yo saque i bue, suerte
Suggest correction
Creating personal tab
Creating personal tab
You can edit any tab online and save it as your Personal.

You can edit, replace or remove any tab part or add personal notes – all changes will be seen only by you.

Personal tabs can be accessed anytime from any device, even offline.
Learn more »
Give kudos to tab author, rate the tab!
1 2 3 4 5
comments
print report bad tab
guest
Wanna post a correction for this tab? Suggest correction