Oops, an error
Loading. Please wait.

Soy Careta, Y? tab

version 1
version 1

Whole song

24 views 3 this week
no commentswrite comment
1 2 3 4 5
3 more votes to show rating
add to favorites
×
Save as Personal and add changes to this tab that will be seen only by you. Learn more ›
×
You can save this tab as Personal to edit and correct it or add notes. All changes will be seen only by you. Learn more »
launch autoscroll
font size
0
reset
how to read this tab
guitar tuner
edit
Autoscroll
slow
fast
+/-
esc
set tempo
stop
Intro:

Con Wha Wha
e:----------------------------------
B:--0000-3-7-5-3-5-8-7-0000-3-7-5---
G:----------------------------------
D:----------------------------------
A:----------------------------------
E:----------------------------------
                                         (x3)
e:----------------------------------
B:--0000-3-7-5-3-5-8-7-0000-3-0-----
G:------------------------------0-2-
D:----------------------------------
A:----------------------------------
E:----------------------------------

A5 - G5 - F# - G5    (x2)
A5
De noche de la nuca a ese lugar fuimo? a parar
G5                                    F# G5
donde el rocanrol nunca para de sonar
A5
De repente como tontos se nos ocurre bailar
G5                                     F# G5
?pecado imperdonable para un rock star?

A5 - G5 - F# - G5    ritmo ska

A5
Un grupo de chicos sacando pechito
G5                                    F# G5
nos mira de reojo con cara de malitos
A5
Se nota desde lejos su aguante y su maldad
G5                                     F# G5
La gente se hace encima cuando los ven pasar


ESTRIBILLO:

e:----------------------------------
B:--0000-3-7-5-3-5-8-7-0000-3-7-5---
G:----------------------------------
D:----------------------------------
A:----------------------------------
E:----------------------------------

e:----------------------------------
B:--0000-3-7-5-3-5-8-7-0000-3-0-----
G:------------------------------0-2-
D:----------------------------------
A:----------------------------------
E:----------------------------------

Para los ?del palo? somos medio caretas
Para los caretas? medio cabezas
Para los ?del palo? somos medio caretas
Para los caretas? medio cabezas

Ay ay ay nos quieren apurar
Ay ay ay nos quieren pegar

A5
Por el simple motivo de en joda bailar
G5                                      F# G5
desde muy cerquita se nos ponen a cantar
A5
?caretas, chetones, son unos maricones
G5                                      F# G5
se comen la bala, no dignos de rocanroles?

Solo de saxo:  A5 - G5 - F# - G5

ESTRIBILLO:

e:----------------------------------
B:--0000-3-7-5-3-5-8-7-0000-3-7-5---
G:----------------------------------
D:----------------------------------
A:----------------------------------
E:----------------------------------

e:----------------------------------
B:--0000-3-7-5-3-5-8-7-0000-3-0-----
G:------------------------------0-2-
D:----------------------------------
A:----------------------------------
E:----------------------------------

?No pueden bailar como mogólicos
acá rocanrol o se pudre todo?
?No pueden bailar como mogólicos
acá rocanrol o se pudre todo?

A5 - G5 - F# - G5 (x2) ( A partir de aca va toda con distorcion )

A5
Somos pacifistas, no generamos violencia
G5                                      F# G5
Pero de carne somos, se nos acaba la paciencia
A5
Nos invitan a la vereda para nuestras caras arruinar
G5                                   F# G5
Y bien calladitos se mandaron a mudar

Solo
base  A5 - G5 - F# - G5
A5
Estereotipo ridículo de quien no sos
G5                                      F# G5
Un pobre roquerito sacado de un cotillón
A5
Todos fabricados con un mismo molde
G5                                  F# G5
Sus personalidades no valen un cobre

Solo
base  A5 - G5 - F# - G5

G5 - A5 (x3) F# - G5

G5 - A5
Para los ?del palo? somos medio caretas
                    F# - G5
Para los caretas? medio cabezas
G5 - A5
Para los ?del palo? somos medio caretas
                    F# - G5
Para los caretas? medio cabezas

Final: G5 - A5 (x3) G5 - F# - G5


Al principio de la cancion toquenla todo con wha wha
y despues cuando se pone heavy denle con distorcion..
LES RECOMIENDO QUE A5 y G5 LOS TOQUEN CON CEJILLA
espero que les salga loco, es facil, disfrutenla :)

            
            
Suggest correction
Creating personal tab
Creating personal tab
You can edit any tab online and save it as your Personal.

You can edit, replace or remove any tab part or add personal notes – all changes will be seen only by you.

Personal tabs can be accessed anytime from any device, even offline.
Learn more »
Give kudos to tab author, rate the tab!
1 2 3 4 5
comments
print report bad tab
guest
Wanna post a correction for this tab? Suggest correction