Oops, an error
Loading. Please wait.

Don Goyo Bass

131 views 1 this week
no commentswrite comment
1 2 3 4 5
3 more votes to show rating
add to favorites
launch autoscroll
font size
0
reset
guitar tuner
×
Best way to learn
"Don Goyo"
Autoscroll
slow
fast
+/-
esc
set tempo
stop
Uno de los temas más populares de "guapos de barrio" en el
mundo de la salsa, a cargo de la Universidad de la Salsa

Intro:

G ---9---9----------|
D -7---9------7-----|
A ----------7-------| (8 veces)
E ------------------|

G -----------------------|
D --7-7--6-6--5-5--------|
A -----------------8-7---| (2veces)
E -----------------------|

Versos:

"Encontraron a Don Goyo... Muertecito en el arroyo"...

G ---9-------9-------9-------9-----|
D -7------7-------9-------9--------|
A -----7-------7-------7--------7--| (4 veces)
E ---------------------------------|

"Que lo mataron por celos, eso fue lo que dijeron..."

G --------------------------|
D -7-7-7--------------------|
A --------10-10-10--8-8-8---|
E --------------------------|

"Y ahora se están preguntando qué quien fue quien lo mató"...

G --------------------------|
D --------------------------|
A -10-10--8--7-7-7--10-8-7--|
E --------------------------|

"Yo no estaba en el arroyo, cuando se murió Don Goyo"...

G ---9-------9-------9---------------9----------9-------9---|
D -9------9-------9----9--7-------7-----7----9-------9------|
A -----7-------7------------7--7----------7-------7---------|
E ----------------------------------------------------------|

G -----------------|
D ------7-------7--|
A -7-10----7-10----|
E -----------------|


Coro:

G ----------9-9-------9-9----9-9---------------9-9--|
D -7-----9---------9-------7--------7-------9-------|
A ---7-7--------7-----------------7---7--7----------|
E --------------------------------------------------|

G -------9-9---------9-9-------9-9----9-9--|
D ----9-----------9---------9-------7------|
A --7----------7----------7----------------| (4 veces)
E -----------------------------------------|

"¡¡Ese muerto no lo cargo yo!!. ¡¡Que lo cargue el que lo mató!!"

G -------9-9-----9--------9-9--------9---------|
D ----7----------------9----------7-------7----|
A -7----------7-----7----------7--------7------| (4 veces)
E ---------------------------------------------|

Mambo:

G ----------------------------------|
D -7-7-7------------9---10----------|
A --------10-8-7--7---8----10-8-7---| (17 veces)
E ----------------------------------|

Fin del Mambo

G ----------------|
D -------------7--|
A -7-7-7--7-10----|
E ----------------|

Coro (Tocar varias veces, hasta el fin):

G --9-9-----9-9---9-9------9-9------|
D --------7-----9--------9-----7----|
A ------7-------------7-------------|
E ----------------------------------|

Fin (Bomba Rythm)

G -------9----------|
D --7-10------------|
A ----------10-8-7--| (2 veces)
E ------------------|

G --------|
D -7-7-7--|
A --------|
E --------|

Esta es toda la canción. Recuerden oirla las veces
necesarias para llevar el ritmo. Disfrútenla. Feliz Navidad,
Dios me los guarde y ¡¡¡HASTA LA PRÓXIMA!!!
Suggest correction
Give kudos to tab author, rate the tab!
1 2 3 4 5
comments
print report bad tab
guest
You may want to rate the tab now too:
select rating
Wanna post a correction for this tab? Suggest correction