Oops, an error
Loading. Please wait.

Ojos Chinos Bass

238 views 3 this week
no commentswrite comment
1 2 3 4 5
3 more votes to show rating
add to favorites
launch autoscroll
font size
0
reset
guitar tuner
×
Best way to learn
"Ojos Chinos"
Autoscroll
slow
fast
+/-
esc
set tempo
stop
Hola de nuevo amigos!!!! Ahora les vengo a mandar esta pieza sabrosita
y divertida, un superclasico del la Universidad de la Salsa.
esta es una versión básica de la canción, por lo que tiene unos pequeños
errores, pero igualmente se puede disfrutar de esta pieza traída del
lejano oriente. Que la gocen!!!....


INTRO (4X)

G ----------------------------------|
D ---------5------------------------|
A ---6---8---8-6---6-6--------------|
E -8---8---------8-----8-6--4-1-0-1-|

ENTRANDO A LA CANCIÓN (SOLO DE VIENTOS)

G ----------------------------------10-------------------------|
D ---10---10---------------------10-----10---------------------|
A -8----8----8----10-----10---8-------------8-----10---10----8-|
E -------------8------8----8-------------------8-----8-----8---|

CANCIÓN (LAS LETRAS) (2X)

G ----------------------------------|
D ---10-10---------10-10----10-10---|
A -8-------8-----8--------8-------8-|
E -----------8-8--------------------|

G -10--8-----------------------|
D --------10--8----------------|
A ---------------11--10--8---8-|
E -------------------------8---|

CAMBIO (2X)

G -------------------------------10-------------------|
D -----10--------------------10-----10----------------|
A ---8----8---10-----10---8------------8---10---10----|
E -8--------8------8----8----------------8----8----8--|

LUEGO, VOLVER A TOCAR LA PARTE DE LA LETRA 2 VECES Y LUEGO, TOCAR
EL "ARREGLO CHINO" (ASÍ LE LLAMO)

G -10-10-10-10--8-8-----10--12--10--10--------8--------8--10--|
D -------------------10----------------10--10---10--10--------|
A ------------------------------------------------------------|
E ------------------------------------------------------------|

CORO (4X) (SE VALE LA IMPROVISACIÓN)

G ----------------------------------|
D ----------------------------------|
A ----8--8--6-----6--8---8---6-7-8--|
E -8-----------8-------8---6--------|

LUEGO VOLVER AL ARREGLO CHINO, TOCAR LA INTRO POR 4 VECES Y LUEGO VOLVER
AL CORO HASTA FINALIZAR LA CANCIÓN. UNA VEZ EN EL FINAL, TOCA ESTO:

G --------------------|
D --------------------|
A -11--10--8----------|
E --------------------|

RECUERDEN QUE ES UNA BASE, PERO ESTA MUY COMPLETA.
SE VALE LA IMPROVISACIÓN PARA DARLE A LA PIEZA MAS CUERPO
(ADEMAS DEL TOQUE PERSONAL DE CADA UNO DE NOSOTROS).
CUALQUIER DUDA, CORRECCIÓN
O CRÍTICA SOBRE ESTE Y/U OTROS DE MIS TRABAJOS, ESTOY A LA ORDEN.

¡¡¡¡QUE VIVA LA SALSA!!!!
Suggest correction
Give kudos to tab author, rate the tab!
1 2 3 4 5
comments
print report bad tab
guest
You may want to rate the tab now too:
select rating
Wanna post a correction for this tab? Suggest correction