Oops, an error
Loading. Please wait.

Ojos Chinos Tab

98 views 1 this week
no commentswrite comment
1 2 3 4 5
3 more votes to show rating
add to favorites
×
Save as Personal and add changes to this tab that will be seen only by you. Learn more ›
×
You can save this tab as Personal to edit and correct it or add notes. All changes will be seen only by you. Learn more »
save as personal
new!
launch autoscroll
font size
0
reset
how to read this tab
guitar tuner
Autoscroll
slow
fast
+/-
esc
set tempo
stop
Con ritmo!!!

... y con capo en el primer traste :D

Intro (x4)

El chinito quele aloz flito, mien flito de Puelto Lico...

e|---------------------------------------------|
B|---------------------------------------------|
G|---------------------------------------------|
D|---1-----3-5-3-1----1--1-----1---------------|
A|-3-----3----------3------3-----3-1-----------|
E|-----------------------------------4-1-(0)-1-|

Luego: (En Em)

e|----------------------3------------
B|-4---4-6-6-4-6-6----6---4-4---4-4--
G|---5--------------5---------5------
D|-----------------------------------
A|-----------------------------------
E|-----------------------------------

e|--------------------3-----------------|
B|---4.-6-6-4-6-6---6---4-4---4-4---4-5-|
G|-5--------------5---------5-----5-----|
D|--------------------------------------|
A|--------------------------------------|
E|--------------------------------------|

Em
Mila que bonitos tiene
la chinita los ojitos
          Em     D    Bm    Am    G          Em   D Em
cuando me hace una guiñada yo me tengo que ponel lojito.
Em
Yo me casalé contigo
en la iglesia de caltón
Em             D   Bm     Am   G       Em  D    Em
polque yo te quielo mucho nena linda de mi colazón.

                   D
Si yo tuviera un palacio
                   Em
ahí tu serías la leina
                     D                           Em
porque tu me tienes loco, china, con esos ojitos lindos.

Em
Tú me tienes hechizado
con ese cuelpito lindo
      Em    D    Bm    Am   G        Em     D   Em
yo dalía toda mi vida nena polque te quedes conmigo.
Em
Yo me casalé contigo
polque yo te quiero mucho
       Em    D      Bm   Am    G        Em  Em - D - Em - G - Em
tú me tienes medio loco china con esos ojitos lindos.


D - Bm - Bm
D - Bm - Bm
D - Em


            D          Em
Qué linda chili (mi chili)
                    D           Em
mami, qué buena es chili (mi chili)
                       D              Em
que chilito, que chilito, que chilito,to,to,to
               D           Em
qué linda es chili (mi chili)
                     D                  Em
yo no sé que voy a hacer sin ti (mi chili)
                     D                Em
porque yo te quiero sólo a ti (mi chili)
                  D           Em
oye qué buena es chili (mi chili)
                       D          Em
oye qué qué linda es chili (mi chili)
                     D             Em
¿de quién son esos ojitos? (mi chili)
                  D                   Em
ella me dice: "Tuyitos papito" (mi chili)
                   D           Em
chinita quiele chinito (mi chili)
                          D           Em
ay! chinito quiele la chinita (mi chili)
                 D             Em
a la china del oriente (mi chili)
                   D            Em - D - Em - G - Em
china, mi china, china (mi chili) china.

D - Bm - Bm
D - Bm - Bm
D - Em

El chinito vuelve a quelel aloz flito, mien flito le Puelto Lico
(El bajo hace asì:)
e|---------------------------------------------|
B|---------------------------------------------|
G|---------------------------------------------|
D|---1-----3-5-3-1----1--1-----1---------------|
A|-3-----3----------3------3-----3-1-----------|
E|-----------------------------------4-1-(0)-1-|

(Las trompetas hacen asì:)
e|-----3--------------------------------
B|---6---6-4-6-----6h8-6-4-----------4--
G|-5-----------5-----------5-3---3-5----
D|-----------------------------6--------
A|--------------------------------------
E|--------------------------------------

e|-----3---------------------------------------|
B|---6---6-4-----6-6-4-4-6-6-------6-4---------|
G|-5---------5---------------5-5-------5-3-----|
D|-----------------------------------------6-3-|
A|---------------------------------------------|
E|---------------------------------------------|


            D          Em
Qué linda chili (mi chili)
                    D           Em
oye pero qué buena es chili (mi chili)
                         D                   Em
qué chévere, que chévere, que chévere (mi chili)
                       D           Em
chévere qué linda es chili (mi chili)
                             D          Em
cómo si a ti no quisiera quererte (mi chili)
                     D                      Em
porque sin ti yo prefiero la muerte (mi chili)
              D          Em
y no a habrá sol (mi chili)
                   D                 Em
china si no te quedas conmigo (mi chili)
                     D           Em
sino por Dios te lo pido (mi chili)
                       D           Em
no me dejes no me abandones (mi chili)
                    D           Em
y no me eches al olvido (mi chili)
                 D           Em
yo me casaré contigo (mi chili)
                   D           Em
chinito quiele chinita (mi chili)
                          D           Em
ay! chinita quiele la chinito (mi chili).


   Em      D     Em       D               Em
e|------------------------------------------
B|-6---6-4-----4-6-----6-4---4---4----------
G|---5-------5-------5---------5---5-3------
D|-------------------------------------6-3--
A|------------------------------------------
E|------------------------------------------

       D       Em      D      Em
e|------------------------6-4---|
B|---6-4-----4-6---6-4--------6-|
G|-5-------5-----------5--------|
D|------------------------------|
A|------------------------------|
E|------------------------------|


                   --------
                º-| ¤    ¤ |-º
                º-|  LuïS  |-º
                º-| ¤    ¤ |-º
                          /
                    |    |
        ·===========================·
        | luis_6cuerdas@ |
        |        Lima - Perú        |
        ·===========================·

*Si hubiese algún error o alguna duda, escribe al mail o avisa por MSN*
Suggest correction
Give kudos to tab author, rate the tab!
1 2 3 4 5
comments
print report bad tab
guest
Wanna post a correction for this tab? Suggest correction