Oops, an error
Loading. Please wait.

Te Vas A Arrepentir Chords

37 views 1 this week
no commentswrite comment
1 2 3 4 5
3 more votes to show rating
add to favorites
launch autoscroll
font size
0
reset
transpose
0
reset
display chords
guitar tuner
Autoscroll
slow
fast
+/-
esc
set tempo
stop
Help us to improve Ultimate-Guitar.com Take our survey!
×
Intro: Gm

   Gm
Te vas a arrepentir
G      Cm      D     Gm
ya lo sé muy bien lo sé.
       Gm
Me has hecho tanto mal
 G        Cm         F  Bb
que ya mi pecho no aguanta más.
Cm           D
Me estoy muriendo
Cm         D
poquito a poco
                    Gm
la vida se me está yendo.
    Gm
Y usted va por ahí
 G    Cm   F         Bb
tranquila sin un problema
 Cm      D                     Gm
pero yo sé que te vas a arrepentir.

   Cm            Bb
El daño que me hiciste
     D            Gm
lo que sufrí por ti
    Cm             Bb
lo llevo aquí en mi pecho
    D         Gm
no me deja vivir.

Gm
Por eso yo sé que te vas a arrepentir
G      Cm      D     Gm
ya lo sé muy bien lo sé.


                    F         Gm
Tú te vas a arrepentir, ya lo sé.  (Riff 1)
                    F         Gm
Tú te vas a arrepentir, ya lo sé.  (Riff 2)
                    F         Gm
Tú te vas a arrepentir, ya lo sé.  (Riff 3)

                    F         Gm
Tú te vas a arrepentir, ya lo sé;
                  F                       Gm
el daño que me hiciste, lo que sufrí por ti.
                    F         Gm
Tú te vas a arrepentir, ya lo sé.
                   F                   Gm
Que un niche como yo no lo vas a conseguir por ahí.
                    F         Gm
Tú te vas a arrepentir, ya lo sé;
                                   F
y aunque un aparente olvido a ti te asombre
                Gm
dime qué harás cuando me nombren.


                    F         Gm
Tú te vas a arrepentir, ya lo sé  (Riff 4)
 F           Gm
      ya lo sé  (Riff 4)
 F           Gm
      ya lo sé  (Riff 4)
 F           Gm
      ya lo sé.


Gm - F (x6)


Gm                    F                       Gm
    El daño que me hiciste, lo que sufrí por ti.
                    F         Gm
Tú te vas a arrepentir, ya lo sé;
                                F
con lágrimas de sangre pagarás tu traición
                              Gm
y tu verás que usted no cuela ya en mi rumbón
                    F         Gm
Tú te vas a arrepentir, ya lo sé;
                           F                      Gm
Pero que yo lo sé mamá, lo sé, ya lo sé, vida, lo sé, tu ves.


Gm - Bb - D - Gm


RIFFS

Riff 1
e|-----5-6.-5-8.--10-8-------8------5-6-7-8-10.-|
B|---8-----------------11-10---11-8-------------|
G|-7--------------------------------------------|
D|----------------------------------------------|
A|----------------------------------------------|
E|----------------------------------------------|

Riff 2
e|----3-2-3-----3-1--------------------------|
B|---3--------3--------4-3h4h3.---------6h5.-|
G|--3----------------5----------3-5.-3-------|
D|-5-----------------------------------------|
A|-------------------------------------------|
E|-------------------------------------------|

Riff 3
e|----------------------------6.-|
B|-3-2-3.---------------8-8-8----|
G|--------3-----------7----------|
D|----------5--------------------|
A|------------5-6-5.-------------|
E|-------------------------------|

Riff 4
e|--------------------------------------|
B|---------3-------------3--------------|
G|-----3-5---5-3---3-5.----3-5.--3---2.-|
D|---5-----------5-----------------5----|
A|-5------------------------------------|
E|--------------------------------------|


                   --------
                º-| ¤    ¤ |-º
                º-|  LuïS  |-º
                º-| ¤    ¤ |-º
                          /
                    |    |
        ·===========================·
        | luis_6cuerdas@ |
        |        Lima - Perú        |
        ·===========================·

*Si hubiese algún error o alguna duda, escribe al mail o avisa por MSN*
Suggest correction
Give kudos to tab author, rate the tab!
1 2 3 4 5
comments
print report bad tab
guest
You may want to rate the tab now too:
select rating
Wanna post a correction for this tab? Suggest correction