Oops, an error
Loading. Please wait.

Una Gota De Lluvia Bass

74 views 1 this week
no commentswrite comment
1 2 3 4 5
3 more votes to show rating
add to favorites
×
Save as Personal and add changes to this tab that will be seen only by you. Learn more ›
×
You can save this tab as Personal to edit and correct it or add notes. All changes will be seen only by you. Learn more »
save as personal
new!
launch autoscroll
font size
0
reset
guitar tuner
Autoscroll
slow
fast
+/-
esc
set tempo
stop
Uno de mis temas favoritos de "La Universidad de la
Salsa". Sencillo, sabroso y sin alardes.


Intro:

G -----------|---9-------9----|-------7--------|
D -----------|-7------7----7--|----7-----------|
A -5--2-4-5--|-----7----------|-5--------(2X)--|
E -----------|----------------|----------------|

G -----------------|----7-----------|--------|
D -7-7-7-----7-----|-5--------------|-8---8--|
A --------5-----5--|-------5--(3X)--|---8----|
E -----------------|----------------|--------|

G -------7------|-------9---9--|-------7---5-----5-5--|
D ----7---------|----9----7----|----7----5----3-------|
A -5------(2X)--|-7------------|-5--------------------|
E --------------|--------------|----------------------|

G ---5----|-------2---------|---------|
D -3---3--|-2-2-2---2--0-0--|-0--0-0--|
A --------|-----------------|---------|
E --------|-----------------|---------|

Versos:

"Como una gota de lluvia que va cayendo... Sobre una
roca, una roca dejando huellas..."

G -------------|-------7--------|----------|----7--------7--|
D --------7-7--|----7-----------|-(7)------|-5--------5-----|
A -5-----------|-5--------(2X)--|-----5-5--|-------5--------|
E ---6-5-------|----------------|----------|----------------|

"Así eres tú, mujer divina que vas dejando en mi vida
 huellas de pasión"

G -------7----|---|-------7----|----9--------9----|----------|
D ----5-------|-5-|----7-------|-7--------7----7--|-----7----|
A -5----(2X)--|---|-5----(2X)--|-------7----------|-(5)---5--|
E ------------|---|------------|------------------|----------|

"Si tú te vas, yo no se que voy a hacer, sin tus caricias,
tus besos y tu amor"...

G -5-----------5-----5-----5-----------5---5-----5-----|
D ----5-----5-----3-----3-----3-----5----5----3-----3--|
A -------3-----------------------3---------------------|
E -----------------------------------------------------|

"Sólo se que tu has dejado huellas que son difícil,
difícil de borrar"...

G -5-------7------9-----|-------7----|----9---------|
D ----3-5----5-7-----7--|----7-------|-7------------|
A ----------------------|-5----(2X)--|------7-(2X)--|
E ----------------------|------------|--------------|

"Reina mía. yo sólo sé que tu has dejado huellas, que son
difícil, difícil de borrar".

G -------7--|-5-7--|----7--------7-----|-------7----|
D ----7-----|------|-5--------5-----5--|----7-------|
A -5--------|------|-------5-----------|-5----(2X)--|
E ----------|------|-------------------|------------|

G -------9-----9--------|--------------|
D ----9-----7-----7-----|--------------|
A -7-----------------5--|-5-5-5--(3X)--|
E ----------------------|--------------|

Pre-coro:

G -------7----9----|-7--7-----7--------|-------------|-9--------|
D ----7----7----7--|------5---------5--|-8-7----7----|----7-----|
A -5---------------|-------------5-----|------5---5--|-------5--|
E -----------------|-------------------|-------------|----------|

Coro/Montuno/Mambo (varias veces):

G -7--7-7-----|----5--5-5--|----5-3-5--|-7--7-7-----|
D ------------|-5----------|-----------|------------|
A ---------5--|------------|-3---------|---------5--|
E ------------|------------|-----------|------------|

G -7---7-5--5-5--|---5-3-5--|
D ---5-----------|----------|
A ---------------|-3--------|
E ---------------|----------|

Final:

G -7--7-7-----|--7-7-----7-5--5-5--|----5-3-5-------|---------|
D ------------|-------5------------|----------------|-7-5-----|
A ---------5--|--------------------|-3--------(4X)--|------5--|
E ------------|--------------------|----------------|---------|

Es toda la canción. Le faltan sus juegos, pero se los dejo a su
criterio y está bien completa. Hasta la próxima. Un abrazo.
Suggest correction
Give kudos to tab author, rate the tab!
1 2 3 4 5
comments
print report bad tab
guest
Wanna post a correction for this tab? Suggest correction