Oops, an error
Loading. Please wait.

Yo Soy La Muerte Bass

319 views 1 this week
no commentswrite comment
1 2 3 4 5
3 more votes to show rating
add to favorites
launch autoscroll
font size
0
reset
guitar tuner
×
Best way to learn
"Yo Soy La Muerte"
Autoscroll
slow
fast
+/-
esc
set tempo
stop
Hola amigos, aquí estoy de vuelta con esta pieza de la Universidad
de la Salsa, casi medio siglo con ella y la verdad, el mismo
sabor.

Intro:

G -----------------------------------------------------|
D -12----12-14-15-14---------------12-15-14-12-11-12---| (4 veces)
A ----12--------------12-11----------------------------|
E ---------------------------11-14---------------------|

Depués de la cuarta vez, tocar esto:

G -----------------------------------------------------------|
D -12------------------12-----12-------12----12--------------|
A -----12-----12----10----10--------10----10----10----11-12--|
E ---------10----10--------------10----------------10--------|

Tema principal:

"Yo soy la muerte (bis). La muerte soy. Y soy la muerte"
(2 veces)

G --------------------------------------9-------------------------|
D -------12----12-------12----12----12----------------------------|
A ----12----12-------12----12----10-----------11-12----12---------|
E -10-------------10-----------------------10-------12-----10-10--|

G --------------9---------------------9----------|
D -------12---------------------12---------------|
A ----10----12----12---------10----12----12------|
E -10----------------12---10----------------12---|

G ----------------9--------------|
D -12-10---------------12--------|
A -------13-13-12---12----11-12--|
E -------------------------------|

Se vuelve a tocar el tema principal, siguiendo la misma secuencia.
Después, se toca el verso; luego el tema principal 1 vez y luego se
toca el riff del principio 2 veces.

Coro/montuno (varias veces):

G ----|-------------------|
D -14-|-------------------|
A ----|----10-10-12--10---|
E ----|-10----------------|

Mambo:

Entrada:

G ---------------------|
D ---------------------|
A -12-12-(5 veces)-----|
E -----------------10--|

Solo de metales:

G ------------------|
D ----------11-12---| (16 veces. Se vale la improvisación).
A -10-10-12---------|
E ------------------|

G -------------------------|
D -------------------------|
A -12-12 (3 veces)--10-----|
E ---------------------10--|

Coro/montuno (Varias veces)

Final:

Mambo (5 veces), y luego:

G -----------------------|
D -----------------------|
A ----------10-12-10-----|
E -10-12-13----------10--|

Esta es toda la canción. Bien sabrosa. Cualquier duda, crítica o
corrección, no duden en escribir. ¡¡¡Hasta la próxima!!!
Suggest correction
Give kudos to tab author, rate the tab!
1 2 3 4 5
comments
print report bad tab
guest
You may want to rate the tab now too:
select rating
Wanna post a correction for this tab? Suggest correction