Oops, an error
Loading. Please wait.

Chuntaro Style Tab

version 2
version 2

Whole song

54 views 1 this week
no commentswrite comment
1 2 3 4 5
3 more votes to show rating
add to favorites
launch autoscroll
font size
0
reset
how to read this tab
guitar tuner
Autoscroll
slow
fast
+/-
esc
set tempo
stop
Help us to improve Ultimate-Guitar.com Take our survey!
×
HOLA YA ALGUIEN HABIA PUESTO ESTE INTRO PERO
YO LES VOY A PASAR TODO LO QUE SIGUE 
LAS NOTAS SON MUY CORECTOS PUESTO Q YA LAS
COMPARE VARIAS VECES CON LA ROLA     


      e------------------------------------
      B---------5-6-5--8-8-8-8-6-5-6-5---5-
      G---4-5-7-----------------------7----
      D-7----------------------------------
      A------------------------------------
      E------------------------------------

       Am                                     Am
      e--------------------------------------
      B---------5-6-5--5-5-------------------
      G---4-5-7------------7-5-7-5-4-5-4-----
      D-7--------------------------------6-7-
      A--------------------------------------
      E--------------------------------------
                       Am Am       
ESTE ES EL CHUNTARO STYLE      Am  Am     Am   Am     
POR QUE CANTO RAGGAMUFFIN Y BAILO DE GAVILAN

TODA LA CANCION LLEVA ESTA PISADA

    Am
e-----5----
B-----5----
G-----5---- EL RITMO ES RAPIDO
D-----7----
A--7-------
E----------

CUANDO DICE:
ESTE ES EL CHUNTARO STYLE
ESTE ES EL RITMO ORIGINAL
PORQUE CANTO RAGGAMUFFIN Y BAILO DE GAVILAN
ESTE ES EL NUEVO CHUNTARO STYLE
LLEVA ESTO:

e-5--7/8---5--7/8-5---5--7/8--------------------
B----------------------------7-5----------------
G--------------------------------7-5------------
D------------------------------------7-5--------
A----------------------------------------7---5--
E-----------------------------------------------

DESPUES CUANDO DICE:
SI SIGO PARA ARRIBA DIGO PIGRI PIGRI PA! 
SI SIGO PARA ABAJO DIGO PIGRI PIGRI PA! 
SI SIGO PARA ABAJO DIGO PIGRI PIGRI PA! 
LLEVA ESTO:

e-----------------5h6--5h6--5----
B------------5-7-----------------
G--------5h7--------------------- 3 VECES
D----5h7-------------------------
A-7------------------------------
E--------------------------------

PORRALACAPIKI LAKEPORRALAKEMAMA!!!

-7---7---7-7---7--
-7---7---7-7---7--
-7---7---7-7---7--
-5---5---5-5---5--
-5---5---5-5---5--
-7---7---7-7---7--

ESTE EL SOLO QUE LLEVA CASI AL ULTIMO

B------1---3---5---6----8----10----12-
G-2--3---5---7---9---10---12----14----

B----17--17----
G-14--------14-   4 VECES

OK ESO FUE TODA LA CANCION
Y CREO Q CON ESO LA ARMAN BIEN

SALUDOS AL CHAVA, AL LUIS, AL ADRIAN Y AL
ALDO DEL GRUPO ELEMENT Q LA MUEVEN CHIDO
Suggest correction
Give kudos to tab author, rate the tab!
1 2 3 4 5
comments
print report bad tab
guest
You may want to rate the tab now too:
select rating
Wanna post a correction for this tab? Suggest correction