Oops, an error
Loading. Please wait.

Cumbia Lunera Bass Tab

183 views 3 this week
no commentswrite comment
1 2 3 4 5
3 more votes to show rating
add to favorites
launch autoscroll
font size
0
reset
guitar tuner
Autoscroll
slow
fast
+/-
esc
set tempo
stop
Help us to improve Ultimate-Guitar.com Take our survey!
×
(ojo, que el solo esta tocado en un bajo de 5 cuerdas...)
(Para tocarlo en uno de 4, desafina la 4ta hasta RE y suma 2 a los numeros de la 4ta)
(Lo que aparece en el 3er traste de la 5ta vendria a ser la 4ta al aire). 
(Saludos para Monterrey.... ya voy... ya voy!)


G|-(5)~7 (5)~7--(5)~7-----7--5--------|
D|----------------------7-------7--5--|
A|------------------------------------|
E|------------------------------------|
B|------------------------------------|


G|-(5)~7 (5)~7--------7--5--------|--(5)~7 (5)~7--------7--5--------|
D|--------------7-----------7--5--|---------------7-----------7--5--|
A|--------------------------------|---------------------------------|
E|--------------------------------|---------------------------------|
B|--------------------------------|---------------------------------|


G|-(5)~7 (5)~7--------7--5--------|
D|--------------7-----------7--5--|
A|--------------------------------|
E|--------------------------------|
B|--------------------------------|


G|----------------7--5--3------|----------------7--5--3------|
D|------------------------5----|------------------------5----|
A|----------5------------------|----------5------------------|
E|----3--6---------------------|----3--6---------------------|
B|-3---------------------------|-3---------------------------|


G|---------------------------|---------------------------|
D|---------------------------|---------------------------|
A|------------------3--------|------------------3--------|
E|----3--6--5----5-----6--3--|----3--6--5----5-----6--3--|
B|-3-------------------------|-3-------------------------|


las 2 ultimas lineas podrian ser asi en un bajo de 4, no suena exactamente igual, 
pero son las mismas notas una octava mas arriba.

G|-------3--7-----7--5--3------|-------3--7-----7--5--3------|
D|----5-------------------5----|----5-------------------5----|
A|-5---------------------------|-5---------------------------|
E|-----------------------------|-----------------------------|

G|---------------------------|---------------------------|
D|----5--8--7----------------|----5--8--7----------------|
A|-5----------------3--------|-5----------------3--------|
E|---------------5-----6--3--|----3--6--5----5-----6--3--|


Transcrito por S-Siro
Suggest correction
Give kudos to tab author, rate the tab!
1 2 3 4 5
comments
print report bad tab
guest
You may want to rate the tab now too:
select rating
Wanna post a correction for this tab? Suggest correction