Oops, an error
Loading. Please wait.

Decadencia Tab

8 views 1 this week
no commentswrite comment
1 2 3 4 5
3 more votes to show rating
add to favorites
launch autoscroll
font size
0
reset
how to read this tab
guitar tuner
Autoscroll
slow
fast
+/-
esc
set tempo
stop
Help us to improve Ultimate-Guitar.com Take our survey!
×
Â?y te pueden respetar


e---------------------------------------5-8-8--
B-------------------------5-5/6-6-6/8-8--------
G---------0-2-2/4-4-5-5-7----------------------
D-----0-2--------------------------------------
A-0-2------------------------------------------
E----------------------------------------------

e-8-8-10-8---------------------------------------
B----------10-8-10-8-8-8-8-6-6-5-5-5-6-5---------
G----------------------------------------7-5-7-5-
D------------------------------------------------
A------------------------------------------------
E------------------------------------------------

e-------------------------------------------------
B-------------5-5---5Â?5-6-5-5-8-5-5-6-5-5-8-5-5-5-
G---------5-7-------------------------------------
D-7-5-7-5-----------------------------------------
A-------------------------------------------------
E-------------------------------------------------

e--------------------------------
B-5-5-6-5-------------------5-5--
G---------7-5-7-5-------5-7------
D-----------------7-5-7----------
A--------------------------------
E--------------------------------

e---------------------------------------------------------
B-5-5-5/8-8-8-8-8-8-6-5---5-5-6-5-------------------5-5-5-
G---------------------------------7-5-7-5-------5-7-------
D-----------------------------------------7-5-7-----------
A---------------------------------------------------------
E---------------------------------------------------------

e-------------------------------------------------------
B-6-5-5-6-5-5-6-5-6-5--------6-5-5-6-5-5-6-5-6-5--------
G---------------------7-5------------------------7-5----
D-------------------------7---------------------------7-
A-------------------------------------------------------
E-------------------------------------------------------

e--------------------------------------------------
B------------------5-------------------------------
G-------4-5-7-7-7-----7-5-7-------4-5-7-7-7-5-4----
D-555-7---------------------555-7---------------7Â?-
A--------------------------------------------------
E--------------------------------------------------


Esperas al ovni que salve tus ansiasÂ?
Suggest correction
Give kudos to tab author, rate the tab!
1 2 3 4 5
comments
print report bad tab
guest
You may want to rate the tab now too:
select rating
Wanna post a correction for this tab? Suggest correction