Oops, an error
Loading. Please wait.

No Sabemos Amar Tab

version 2
version 2

Whole song

37 views 1 this week
no commentswrite comment
1 2 3 4 5
3 more votes to show rating
add to favorites
launch autoscroll
font size
0
reset
how to read this tab
guitar tuner
×
Best way to learn
"No Sabemos Amar"
Autoscroll
slow
fast
+/-
esc
set tempo
stop
 4---------------------------------------------9-710-----------------------------
 1------------------------------------------------------------

 4--9-9-9-9----------------------------
 3----------7-9-9*-9*-9*-9-7F#m G  Riff 2 
  no tengo a quien amar.

   Riff 2:

  3--2-2-2---2-2-2--------------
  2--3-3-3---3-3-3--------------
  1--2-3-2---2-3-2--------------

  Riff 1
  El sol es muy caliente 
  y a la vez hay humedad
  Los relojes son feroces
  y no existe marcha atras 
  corazones prisioneros
                 F#m G  Riff 2
  no tengo a quien amar 
     Em         A       Riff 2
  no tengo a quien amar
  

   Em            A
  El dinero nos ahoga 
        D
  y no nos deja de apretar
   Em            A
  el dinero nos ahoga 
        D          Em A D
  y no nos quiere soltar

  Cumbia.

  Riff 1  ( solo de acordeon)

  Requinto:

  4-----------------------------------------------------
  3-----------------------------------------------------
  2---5-7-5-7-5-7-5-3-0-X2--5-7-5-7-5-7-5-7-7-7---------
  1---------------------------------------------5-7-7---

  4-------------------------------------------------
  3-------------------------------------------------
  2-------------------------------------------------
  1--7X8-----10X8--10
Suggest correction
Give kudos to tab author, rate the tab!
1 2 3 4 5
comments
print report bad tab
guest
You may want to rate the tab now too:
select rating
Wanna post a correction for this tab? Suggest correction