Oops, an error
Loading. Please wait.

No Sabemos Amar Tab

version 3
version 3

Whole song

22 views 1 this week
no commentswrite comment
1 2 3 4 5
3 more votes to show rating
add to favorites
launch autoscroll
font size
0
reset
how to read this tab
guitar tuner
Autoscroll
slow
fast
+/-
esc
set tempo
stop
Help us to improve Ultimate-Guitar.com Take our survey!
×
Asi empieza

e----------------------------------------------
B----------------------------------------------
G-4-4-----4-4------4-4-----4-4-----4-4---------
D-----4-5-----4/5------4-5-----4-5-----4-5-----
A----------------------------------------------
E----------------------------------------------

se sigue haciendo constantemente hasta el solo;
acompañando una segunda guitarra con rasgueo:

e-2--2--2--2--2--2--2--2--2--2--2-
B-3--3--3--3--3--3--3--3--3--3--3-
G-4--4--4--4--4--4--4--4--4--4--4-
D---------------------------------
A---------------------------------
E---------------------------------

e---------------2/5-5-5-5--5-5-5-7-5---------------
B-3---3---3-3-3----------------------7-5-7-5-5-3-0-
G---4---4------------------------------------------
D--------------------------------------------------
A--------------------------------------------------
E--------------------------------------------------

e-------------------------------------------------
B-----3---3---3-------3-5-5/6-6-6-6-6-6-5/3-Â?-3---
G-2/4---4---4---4---4-----------------------4---4-
D-------------------------------------------------
A-------------------------------------------------
E-------------------------------------------------
Se sigue haciendo el primer diagrama con el segundo

SOLO:
e-0-2-0-2-0-2-0-----0-2-0-2-0-2-0-2-2-5-7-
B---------------3-0-----------------------
G-----------------------------------------  (Dos veces)
D-----------------------------------------
A-----------------------------------------
E-----------------------------------------

e-7-7-7-7-7-7-7-7-7-7-7-7-7-7-7-7-10-10-10-10-10-10-10-10-
B---------------------------------------------------------
G---------------------------------------------------------
D---------------------------------------------------------
A---------------------------------------------------------
E---------------------------------------------------------

e-12-12-12-12-12-12-12-12Â?12/14-14-14-12-10-10-7-7-
B--------------------------------------------------
G--------------------------------------------------
D--------------------------------------------------
A--------------------------------------------------
E--------------------------------------------------

e-7-7-10-7---------------------------------
B----------10-7-10-7-----------------------
G--------------------9-7-9-7---------7/9---
D----------------------------9-7-9-9-----9-
A------------------------------------------
E------------------------------------------
Suggest correction
Give kudos to tab author, rate the tab!
1 2 3 4 5
comments
print report bad tab
guest
You may want to rate the tab now too:
select rating
Wanna post a correction for this tab? Suggest correction