Oops, an error
Loading. Please wait.

The Wings Chords

4 views 1 this week
no commentswrite comment
1 2 3 4 5
3 more votes to show rating
add to favorites
launch autoscroll
font size
0
reset
transpose
0
reset
display chords
guitar tuner
×
Best way to learn
"The Wings"
Autoscroll
slow
fast
+/-
esc
set tempo
stop
Esta rola esta muy facil, no te sera dificil sacarla

E--5-5------------------------7--5-5-5-5-5--
A--7-7-4-7-7-7-7-7-7---5-5-4--9--7-7-7-7-7--
D--7-7-6-5-9-9-9-9-9---7-7-6--9--7-7-7-7-7--
G------6-5-9-9-9-9-9---7-7-6----------------
B-------------------------------------------
e-------------------------------------------

E--------------------------------7-5-5-5-5-5-------
A--12-12--11--7-7-7-7-7---5-5-4--9-7-7-7-7-7---
D--14-14--13--9-9-9-9-9---7-7-6--9-7-7-7-5-7-
G--14-14--13--9-9-9-9-9---7-7-6--------------
B--------------------------------------------
e--------------------------------------------


repite las dos secciones individualmente dos veces y luego sigue con la otra. 

solo

E-------------------------------------------
A-------------------------------------------
D---7-7------------------------9-7-7-7-7-7--
G--------6-7-9-9-9-9-9--7-7-6---------------
B-------------------------------------------
e-------------------------------------------

E--------------------------------------------
A-----------------------------------------12-
D--------------12-12-12-12-12----10-10-9-----
G--12-12-11-9--------------------------------
B--------------------------------------------
e--------------------------------------------

E--------------------------------------------
A----11-11-11-11-11--------------------------
D--------------------------------------------
G--------------------------------------------
B--------------------------------------------
e--------------------------------------------
Suggest correction
Give kudos to tab author, rate the tab!
1 2 3 4 5
comments
print report bad tab
guest
You may want to rate the tab now too:
select rating
Wanna post a correction for this tab? Suggest correction