Oops, an error
Loading. Please wait.

Ladrones Y Policias Tab

version 1
version 1

Whole song

23 views 1 this week
no commentswrite comment
1 2 3 4 5
3 more votes to show rating
add to favorites
launch autoscroll
font size
0
reset
how to read this tab
guitar tuner
×
Best way to learn
"Ladrones Y Policias"
Autoscroll
slow
fast
+/-
esc
set tempo
stop
INTRO
---------------------------------------------------
---------------------------------------------------
---------------------------------------------------
---------------------------------------------------
22-222-2----------22-222-2-------------------------
---------33-3-22----------333-3-222----------------
A
---------------------------------------------------
---------------------------------------------------
---------------------------------------------------
---------------------------------------------------
0-0--0-4-4--4-2-0-2-4-0----0-0---0-4-4--4-2-0-2-4-0
------------------------0--------------------------


                A
mirando en la calle , la gente pasar
                A
y no se me ocurre, nada consentir
                A
i los hombres de army , hacen su entrada
                A
por el momento todo , esta normal 
                A
hasta que veo un joven singular 
                A
con sus cadenas y su look de punk
                A
los hombres de army lo requisan y
                A
toman sus cosas y solo se van
               INTRO 
los hombres de army son unos hijueputas

hay que enseñarles primero a respetar
                A 
sacarles los ojos , los dientes y las uñas 
                A
y luego mandarlos de vuelta a trabajar
                A
durmiendo en un parque y empiezo a soñar
                A
y sueño con viajes a un mundo muy raro
                A
los hombres de army hacen su trabajo
                A
y no se dedican tan solo a robar 
                A
hasta que me lleba un olor singular
                A
alguien que golpea mi espalda y su voz 
                A 
los hombres de army me requisan y 
                A
roban mi reloj , mi dinero y se van
           INTRO
los hombres de armi...       
  

manden comentarios o recomendaciones
buena nota
Suggest correction
Give kudos to tab author, rate the tab!
1 2 3 4 5
comments
print report bad tab
guest
You may want to rate the tab now too:
select rating
Wanna post a correction for this tab? Suggest correction