Oops, an error
Loading. Please wait.

Ladrones Y Policias Tab

version 2
version 2

Whole song

20 views 1 this week
no commentswrite comment
1 2 3 4 5
3 more votes to show rating
add to favorites
launch autoscroll
font size
0
reset
how to read this tab
guitar tuner
×
Best way to learn
"Ladrones Y Policias"
Autoscroll
slow
fast
+/-
esc
set tempo
stop
Intro, coro.


(1)
e--0-0-2-4-4--4-2--0-2-4-0-0-|--0-0-2-4-4--4-2-0-2-4-0--
b-0--------------------------|--0-----------------------
g----------------------------|--------------------------
D----------------------------|--------------------------
A----------------------------|--------------------------
E----------------------------|--------------------------

(2)
e---------------------------|
b---------------------------|
g--4-4-4-4-4----------------|
D--4-4-4-4-4--5-5-5--4-4-4--|
A--2-2-2-2-2--5-5-5--4-4-4--|
E-------------3-3-3--2-2-2--|


(3)
e------------------------------------|
b------------------------------------|
g--9-9-9-9-9-9-----------------------|
D--9-9-9-9-9-9--10-10-10---9-9-9-----|
A--7-7-7-7-7-7--10-10-10---9-9-9-----|
E----------------8--8--8---7-7-7-----|

(4)
e------------------------------------|
b------------------------------------|
g--7-7-7-7-7--10-10-10--9/10--7------|
D--7-7-7-7-7--10-10-10--9/10--7------|
A--5-5-5-5-5---8--8--8--7/8---5------|
E------------------------------------|

El número entre parentesis indica la parte que se debe tocar 
(Escuchar la canción para saber cuantas veces).

Letra:

(1)
(2)
Mirando en la calle la gente pasar,
y no se me ocurre nada con sentido.
(3)
Los hombres de army hacen su entrada,
por el momento todo esta normal.

(2)
Hasta que veo un joven singular,
con sus cadenas y su look de punk.
Los hombres de army lo registran y
tomas sus cosas y solo se van.

(1)
Los hombres de army son unos hijueputas,
hay que enseñarles primero a respetar.

(4)
Sacarles un ojo, los dientes y las uñas,
y luego mandarlos de vuelta a trabajar.  (4)

(2)
Durmiendo en un parque y empiezo a soñar,
y sueño con viajes a un mundo muy raro.
(3)
Los hombres de army hacen su trabajo,
y no se dedican tan solo a robar.

(2)
Hasta que me llega un olor singular,
Alguien que golpea mi espalda y su voz.
Los hombres de army me requisan y
Roban mi reloj, mi dinero y se van.

(1)
Los hombres de army son unos hijueputas,
hay que enseñarles primero a respetar.

(4)
Sacarles un ojo, los dientes y las uñas,
y luego mandarlos de vuelta a trabajar.  (4)

(4)
Hombres, hombres, hombres, hombres...

Fin

Larga vida al rockcriollo nacional!!!
Suggest correction
Give kudos to tab author, rate the tab!
1 2 3 4 5
comments
print report bad tab
guest
You may want to rate the tab now too:
select rating
Wanna post a correction for this tab? Suggest correction