Oops, an error
Loading. Please wait.

M.e.r. Tab

version 2
version 2

Whole song

5 views 1 this week
no commentswrite comment
1 2 3 4 5
3 more votes to show rating
add to favorites
launch autoscroll
font size
0
reset
how to read this tab
guitar tuner
Autoscroll
slow
fast
+/-
esc
set tempo
stop
R.1
 e|-10--13-13--10-12-12--10-13-13--10-12----|-10--13-13--10-12-12--10\-||
 B|--------------------------------------13-|--------------------------||
 G|-----------------------------------------|--------------------------||
 D|-----------------------------------------|--------------------------||
 A|-----------------------------------------|--------------------------||
 E|-----------------------------------------|--------------------------||
 

 R.2
 e|-10--13-13--10-12-12--10-13-13--10-12----|-10--13-13--10-12-12--10--18-17\18/17-||
 B|--------------------------------------13-|--------------------------------------||
 G|-----------------------------------------|--------------------------------------||
 D|-----------------------------------------|--------------------------------------||
 A|-----------------------------------------|--------------------------------------||
 E|-----------------------------------------|--------------------------------------||


 R.3
 e|-10--13-13--10-12-12--10-13-13--10-12----|-10--13-13--10-12-12--10-10--13-10-10--13-10-||
 B|--------------------------------------13-|---------------------------------------------||
 G|-----------------------------------------|---------------------------------------------||
 D|-----------------------------------------|---------------------------------------------||
 A|-----------------------------------------|---------------------------------------------||
 E|-----------------------------------------|---------------------------------------------||

 CORO
 e|-------------------------|----||
 B|-------------------------|----||
 G|-7-7---------------------|-7\-||
 D|-7-7--8-8--7--(10 VECES)-|-7\-||
 A|-5-5--8-8--7-------------|-5\-||
 E|------6-6--5-------------|----||
    


 SE TOCA EN EL SIGUIENTE ORDEN:

 R.1 - R.2 - R.3 - R.1 - R.3 - R.1 - R.1 - CORO  (Y REPITE)
Suggest correction
Give kudos to tab author, rate the tab!
1 2 3 4 5
comments
print report bad tab
guest
Wanna post a correction for this tab? Suggest correction