Oops, an error
Loading. Please wait.

Te Dire Te Quiero Bass Tab

18 views 1 this week
no commentswrite comment
1 2 3 4 5
3 more votes to show rating
add to favorites
launch autoscroll
font size
0
reset
guitar tuner
×
Best way to learn
"Te Dire Te Quiero"
Autoscroll
slow
fast
+/-
esc
set tempo
stop
--------------8------------------5----------
-66-------666---65-33--------333---88-55-33-
----66-88-------------333-55----------------
--------------------------------------------

--------------8------------------5----------
-66-------666---66---33-------33---33-------
----66-88----------5----33-55---------------
--------------------------------------------

--------------------------------------------
---------------------------88-66------------
-------66-----66--------88-88-66-55-33------
-34-44----444----444-66---------------------
Suggest correction
Give kudos to tab author, rate the tab!
1 2 3 4 5
comments
print report bad tab
guest
You may want to rate the tab now too:
select rating
Wanna post a correction for this tab? Suggest correction