Oops, an error
Loading. Please wait.

Te Dire Te Quiero Tab

version 2
version 2

Whole song

29 views 1 this week
no commentswrite comment
1 2 3 4 5
3 more votes to show rating
add to favorites
launch autoscroll
font size
0
reset
how to read this tab
guitar tuner
Autoscroll
slow
fast
+/-
esc
set tempo
stop
Help us to improve Ultimate-Guitar.com Take our survey!
×
Tab de intro y estrofa 1 (Bass)
G-----------------------3--------      |------------------------------0---------
D--1--------------1-1----1-1---        |----------------------------------------
A------1-1--3-3-----------------       |----1-3--3------1-1--3-3---------3-3----
E---------------------------------     |-------------3-3------------------------

G-----------------------------------   |--------------------3-3-1-1-0-0---------
D------------1-1--------1-1-------     |-----------3-3---3---------------3-3-1--
A-----------------------------------   |--0-1---1-------------------------------
E---3-4--4--------4-4-------4-4--      |----------------------------------------

Tab de estrofa 2 (Bass)
G-----------------------3--------      |------------------------------0---------
D--1--------------1-1----1-1---        |----------------------------------------
A------1-1--3-3-----------------       |----1-3--3------1-1--3-3---------3-3----
E---------------------------------     |-------------3-3------------------------

G-----------------------------------   |----------------------------------------
D------------1-1--------1-1-------     |----------------------------------------
A-----------------------------------   |--0-1---1-1-1-1-1-----------------------
E---3-4--4--------4-4-------4-4--      |----------------------------------------


Estrofa 1
                D#  D#  E#  E#  D#  D#
Hay música en la playa

E#  E#                C  C  D  D  C  C
Siempre la trae el verano

D  D             G#  G#  G#  G#  G#  G#
Tomados de la mano

G#  G#              Bb  Bb  Bb  Bb
La iremos a escuchar


Estrofa 2
            D#  D#  E#  E#  D#  D#
Sentados en la arena

E#  E#            C  C  D  D  C  C
Mirando las estrellas

D  D                G#  G#  G#  G#  G#  G#
Y hay tantas cosas bellas

G#  G#            Bb  Bb  Bb  Bb  Bb
Que te podría decir

Estribillo
   G#                  Bb
Y te diré te quiero te quiero te quiero
          G             C
Y veremos la luna jugar con el mar
          G#              Bb
Porque te quiero tanto pero tanto tanto
          G D#  D# E# E#  E# D#
Yo nunca he amado así

Solo
E---------1-3-4---4-8-8-8--8-8-6--        | --------0-2-3---3-1---------|
B-4-4-4------------------------------     | -3-3-3---------------2---4--|
G-------------------------------------    | ------------------------3-----|
D--------------------------------------   | ------------------------------|
A--------------------------------------   | ------------------------------|
E--------------------------------------   | ------------------------------|

E ---------1-3-4---1-1-1-----------       | ------2-------0---|
B -4-4-4------------------4-4-4-3-        | -3-3----3-0------|
G ------------------------------------    | -------------------|
D ------------------------------------    | -------------------|
A ------------------------------------    | -------------------|
E ------------------------------------    | -------------------|
Suggest correction
Give kudos to tab author, rate the tab!
1 2 3 4 5
comments
print report bad tab
guest
You may want to rate the tab now too:
select rating
Wanna post a correction for this tab? Suggest correction