Oops, an error
Loading. Please wait.

Amargo Adios Bass Tab

316 views 15 this week
no commentswrite comment
1 2 3 4 5
3 more votes to show rating
add to favorites
launch autoscroll
font size
0
reset
guitar tuner
Autoscroll
slow
fast
+/-
esc
set tempo
stop
Help us to improve Ultimate-Guitar.com Take our survey!
×
que tal
este bajeo esta bien chido y va para toda la raza que
le gusta esta banda.

*esto es un ligado

intro (al mero principio donde utilizan una guitarra)
E-------------5-5---------------------------------------
A--------5-5-------5*0-----3-3-3-3---------3---3--------
D-----------------------------------5---5----5---5------
G-------------------------------------5-----------------

--3-3---------------------5-5-----------------------
------5-5----3-3------3*5-----5*0-------------------
-----------------5-5--------------------------------
----------------------------------------------------

estrofas
E---------------------------------------------3-3------------
A--5-5---8-7-5--5-5-8-7--5*3--3-------3---3-3-----5-5-3-3----
D------7------------------------5---5---5--5--------------5-5
G---------------------------------5--------------------------

-------------------------
--3*5-5----8-7-5---------     y esto se repite durante
---------7--------7-8-7-8     las estrofas
-------------------------

coro
es la parte donde dice  ''solo unos minutos te pido...''

E--1-1-1---5-5-5-----------6-8---1-1-1--5-5-5-6-6-8-6-5-
A-----------------5-5-5575------------------------------
D-------------------------------------------------------
G-------------------------------------------------------


--1-1-1---5-5-5-----------6-8---1-1-1--5-5-5-6-6-8-6-5-
-----------------5-5-5575------------------------------
-------------------------------------------------------
-------------------------------------------------------

--5----------
----7---8-7-5
------7------     y aqui se vuelve a repetir la estrofa
-------------

espero les sirva
Suggest correction
Give kudos to tab author, rate the tab!
1 2 3 4 5
comments
print report bad tab
guest
You may want to rate the tab now too:
select rating
Wanna post a correction for this tab? Suggest correction