Oops, an error
Loading. Please wait.

Amargo Adios Tab

version 1
version 1

Whole song

223 views 6 this week
no commentswrite comment
1 2 3 4 5
1 last vote to show rating
add to favorites
launch autoscroll
font size
0
reset
how to read this tab
guitar tuner
×
Best way to learn
"Amargo Adios"
Autoscroll
slow
fast
+/-
esc
set tempo
stop
Que onda me llamo Israel y es mi primera canción
que aporto y ?Amargo Adiós? es un de las primeras
canciones que saco INSPECTOR y una de mis favoritas,
la verdad no se si este bien pero trate de sacarla
lo mejor que pude y para mi suena bien. Le mando
saludos a mi mejor amiga Sonia (O Yonki)que es una
persona muy especial para mi y a la persona que he
amado desde el día que le empecé a hablar y también
le mando un saludos a mis cuates Cristian y Diego.
LAS NOTAS SON ESTAS:
       E  A  D  G  B  E
 Dm    0  0  0  2  3  1
 C     0  3  2  0  1  0
 Bb    1  1  3  3  3  1
 F     1  3  3  2  1  1
 Am    0  0  2  2  1  0
 A     0  0  3  3  3  0

Intro

   Dm            C             Bb              C          Dm
E -----------------------------------------------------------------
A 5----8-5-----5---5-7----8-7-5-3-5-3-5-7-8-7-5-3-5-3-5-7-9-11-13--
D -7-5----------7-5------------------------------------------------
G -----------------------------------------------------------------
B -----------------------------------------------------------------
e -----------------------------------------------------------------

Esta es la parte de las trompetas:
   Dm           C               Bb       C          Dm
E -----------------------------------------------------------------
A -----------------------------------------------------------------
D -----------------------------------------------------------------
G -----------------------------------------------------------------
B 3----3------3----3---------------3-1-3-1-3-5-6-5-3-1-3-----------
e -5-3--3-5----5-3--1-0-1-0----1-0---------------------------------

   Dm           C           Bb           C          Dm
E -----------------------------------------------------------------
A -----------------------------------------------------------------
D -----------------------------------------------------------------
G -----------------------------------------------------------------
B 3---3------3----3--------------------3-3-1-3-1-3-5-6-5-3-1-3-5-7-9
e -5-3-3-5----5-3--1-0-1-3-3-1-1---1-0-----------------------------

CORO
Dm                             C
Se que es tarde ya, para pedir perdón
           Bb               C                 Dm
Se que es tarde ya y lo siento termina nuestro amor


ESTROFA 1
Dm                  C
Si ya nada funciona contigo, y el intento no va mas allá
 Bb              C                Dm
No me pidas darle tiempo al tiempo no puedo esperar

 ESTROFA 2
     Dm                       C
Si la culpa fue tuya o fue mía el saberlo ya no servirá
      Bb                 C
no me pidas que sea tu amigo te aseguro no funcionará


PRECORO 1
      F              Am         Dm                   Bb
Sólo unos minutos te pido voy a ahorrarte tener que explicar
     F                    Am           Dm              Bb
diferencia entre novio y amigo cuanto tiempo puede funcionar


PRECORO 2
       F                  Am         Dm            Bb
Y con vodka pretendo olvidarte mis amigos y esta canción
         F       Am          Dm        Bb            C  A
por que se que siempre que siempre es amargo el adiós


CORO
Dm                             C
Se que es tarde ya, para pedir perdón
           Bb               C                 Dm
Se que es tarde ya y lo siento termina nuestro amor

CORO
Dm                             C
Se que es tarde ya, para pedir perdón
           Bb               C                 Dm
Se que es tarde ya y lo siento termina nuestro amor

Solo
   Dm                  C                   Bb         C             Dm
E ------------------------------------------------------------------------
A ------------------------------------------------------------------------
D ------------------------------------------------------------------------
G ------------------------------------------------------------------------
B 1-3------------------3--------------------3-3---------------------------
e ----5-5-3-5---5-3-1-0-0-1-1-0-0-1-0-3-1-0----0-1-3-0--0-1-3-5-3-5-7-5-3-1


PRECORO 1
      F               Am         Dm                    Bb
Sólo unos minutos te pido voy a ahorrarte tener que explicar
     F                    Am            Dm             Bb
diferencia entre novio y amigo cuanto tiempo puede funcionar

PRECORO 2
       F                  Am        Dm            Bb
Y con vodka pretendo olvidarte mis amigos y esta canción
         F       Am         Dm         Bb         C    A
por que se que siempre que siempre es amargo el adiós


CORO
Dm                             C
Se que es tarde ya, para pedir perdón
           Bb               C                 Dm
Se que es tarde ya y lo siento termina nuestro amor

CORO
Dm                             C
Se que es tarde ya, para pedir perdón
           Bb               C                 Dm
Se que es tarde ya y lo siento amargo es el adiós.


Bueno esto fue toda la canción y espero que les haya servido
cualquier duda o comentario al isrbl13
Suggest correction
Give kudos to tab author, rate the tab!
1 2 3 4 5
comments
print report bad tab
guest
You may want to rate the tab now too:
select rating
Wanna post a correction for this tab? Suggest correction