Oops, an error
Loading. Please wait.

Amargo Adios Tab

version 2
version 2

Whole song

92 views 1 this week
no commentswrite comment
1 2 3 4 5
3 more votes to show rating
add to favorites
launch autoscroll
font size
0
reset
how to read this tab
guitar tuner
×
Best way to learn
"Amargo Adios"
Autoscroll
slow
fast
+/-
esc
set tempo
stop
Intro::

     Dm
e-----------I
B-----------I
G-----------I
D---7-5-----I
A-5-----8-5-I
E-----------I

     C
e-----------I
B-----------I
G-----------I
D---7-5-----I
A-5-----5-7-I
E-----------I

     Bb          C              Dm
e-----------------------------------------I
B-----------------------------------------I
G-------------------------------3h-5h5/7~-I
D-----------------------------4-----------I
A-8-7-5---5---5-7-8-7~~-5-3-5-------------I
E-------8---8-----------------------------I

Esta es la parte de Trompetas (pasada a la lira)::

E---5-3---3h5---5-3---1-0-1p0--1-0---------------------------I
B-3-----3-----3-----3--------------3-1-3-1-3-5-6-5--3-5-5/6--I
G------------------------------------------------------------I
D------------------------------------------------------------I
A------------------------------------------------------------I
E------------------------------------------------------------I

E----5-3---3h5---5-3--1-0-1-3-1-0-0-1-0-----------------------I
B--3-----3-----3-----3------------------3-1-3-1-3-5-6-5-3-1/3-I
G-------------------------------------------------------------I
D-------------------------------------------------------------I
A-------------------------------------------------------------I
E-------------------------------------------------------------I

E---3-5-I
B-3-----I
G-------I
D-------I
A-------I
E-------I

Durante los metales se toka esto::

Dm-C-Bb-C-Dm____X2

                Dm
Se que es tarde ya 
               C
para pedir perdón,
          Bb            C
se que es tarde ya y lo siento 
          Dm
termina nuestro amor.

      Dm
Si ya nada funciona contigo
      C
el intento no va mas aya
      Bb                     C
no me pidas darle tiempo al tiempo
              Dm  
no puedo esperar

      Dm
Si la culpa fue tuya o fue mía
      C
el saberlo ya no servirá
      Bb                 C
no me pidas que sea tu amigo
      Dm
te aseguro no funcionará

     F                Dbm
Sólo unos minutos te pido
          Dm                  Bb
voy a ahorrarte tener que explicar
     F                     Dbm
diferencia entre novio y amigo
        Bb                 A
cuanto tiempo puede funcionar

       F                  Dbm
Y con vodka pretendo olvidarte
     Dm                Bb
mis amigos y esta canción
         F       Bb
por que se que siempre
     Bb  Bb Bb Bb  C Bb  A
que siempre es amargo el adiós


Y se repite...

Solo::

E-----5-3-5--5-3-1-0-1-3-1-0-0--3-1-0-1-0-----I
B-1/3-------------------------------------3-1-I
G---------------------------------------------I
D---------------------------------------------I
A---------------------------------------------I
E---------------------------------------------I

E-3-1-0-1-0-----3-1-0-1-0-3/5-3-1-0-I
B-----------3-1---------------------I
G-----------------------------------I
D-----------------------------------I
A-----------------------------------I
E-----------------------------------I


NoTa::Para ke se eskuche chingón,asi komo se oye en el disko,
los akordes deberan ser tokados de la siguiente manera::


   Dm-C-Bb-F-Dbm-A
e  7  3 1  1  4  5
B  8  5 3  1  5  5
G  9  5 3  2  6  6
D  9  5 3  3  6  7
A  7  3 1  0  4  7
E  7  X X  X  X  5


ThE mR. sPiRo GoOdTrIpS: the_spiro2505@

(¯`·._.·[×÷·.·´¯`·)»Oº°?¨ThE mR. sPiRo GoOdTrIpS ®¨?°ºO«(·´¯`·.·÷×]·._.·´¯)
Suggest correction
Give kudos to tab author, rate the tab!
1 2 3 4 5
comments
print report bad tab
guest
You may want to rate the tab now too:
select rating
Wanna post a correction for this tab? Suggest correction